  0
SECTION
  2
HEADER
  9
$ACADVER
  1
AC1015
  9
$ACADMAINTVER
 70
    20
  9
$DWGCODEPAGE
  3
ANSI_1252
  9
$INSBASE
 10
0.0
 20
0.0
 30
0.0
  9
$EXTMIN
 10
0.0
 20
0.0
 30
0.0
  9
$EXTMAX
 10
420.0
 20
297.0000076293946
 30
0.0
  9
$LIMMIN
 10
0.0
 20
0.0
  9
$LIMMAX
 10
420.0
 20
297.0
  9
$ORTHOMODE
 70
     0
  9
$REGENMODE
 70
     1
  9
$FILLMODE
 70
     1
  9
$QTEXTMODE
 70
     0
  9
$MIRRTEXT
 70
     0
  9
$LTSCALE
 40
1.0
  9
$ATTMODE
 70
     1
  9
$TEXTSIZE
 40
0.2
  9
$TRACEWID
 40
0.05
  9
$TEXTSTYLE
  7
Standard
  9
$CLAYER
  8
0
  9
$CELTYPE
  6
ByLayer
  9
$CECOLOR
 62
   256
  9
$CELTSCALE
 40
1.0
  9
$DISPSILH
 70
     0
  9
$DIMSCALE
 40
1.0
  9
$DIMASZ
 40
1.799999999999999
  9
$DIMEXO
 40
0.0625
  9
$DIMDLI
 40
0.38
  9
$DIMRND
 40
0.0
  9
$DIMDLE
 40
0.0
  9
$DIMEXE
 40
0.18
  9
$DIMTP
 40
0.0
  9
$DIMTM
 40
0.0
  9
$DIMTXT
 40
0.3499999940395355
  9
$DIMCEN
 40
0.09
  9
$DIMTSZ
 40
0.0
  9
$DIMTOL
 70
     0
  9
$DIMLIM
 70
     0
  9
$DIMTIH
 70
     1
  9
$DIMTOH
 70
     1
  9
$DIMSE1
 70
     0
  9
$DIMSE2
 70
     0
  9
$DIMTAD
 70
     0
  9
$DIMZIN
 70
     0
  9
$DIMBLK
  1

  9
$DIMASO
 70
     1
  9
$DIMSHO
 70
     1
  9
$DIMPOST
  1

  9
$DIMAPOST
  1

  9
$DIMALT
 70
     0
  9
$DIMALTD
 70
     2
  9
$DIMALTF
 40
25.4
  9
$DIMLFAC
 40
1.0
  9
$DIMTOFL
 70
     0
  9
$DIMTVP
 40
0.0
  9
$DIMTIX
 70
     0
  9
$DIMSOXD
 70
     0
  9
$DIMSAH
 70
     0
  9
$DIMBLK1
  1

  9
$DIMBLK2
  1

  9
$DIMSTYLE
  2
Standard
  9
$DIMCLRD
 70
     0
  9
$DIMCLRE
 70
     0
  9
$DIMCLRT
 70
     0
  9
$DIMTFAC
 40
1.0
  9
$DIMGAP
 40
0.09
  9
$DIMJUST
 70
     0
  9
$DIMSD1
 70
     0
  9
$DIMSD2
 70
     0
  9
$DIMTOLJ
 70
     1
  9
$DIMTZIN
 70
     0
  9
$DIMALTZ
 70
     0
  9
$DIMALTTZ
 70
     0
  9
$DIMUPT
 70
     0
  9
$DIMDEC
 70
     4
  9
$DIMTDEC
 70
     4
  9
$DIMALTU
 70
     2
  9
$DIMALTTD
 70
     2
  9
$DIMTXSTY
  7
Standard
  9
$DIMAUNIT
 70
     0
  9
$DIMADEC
 70
     0
  9
$DIMALTRND
 40
0.0
  9
$DIMAZIN
 70
     0
  9
$DIMDSEP
 70
    46
  9
$DIMATFIT
 70
     3
  9
$DIMFRAC
 70
     0
  9
$DIMLDRBLK
  1

  9
$DIMLUNIT
 70
     2
  9
$DIMLWD
 70
    -2
  9
$DIMLWE
 70
    -2
  9
$DIMTMOVE
 70
     0
  9
$LUNITS
 70
     2
  9
$LUPREC
 70
     2
  9
$SKETCHINC
 40
0.1
  9
$FILLETRAD
 40
0.0
  9
$AUNITS
 70
     0
  9
$AUPREC
 70
     0
  9
$MENU
  1
.
  9
$ELEVATION
 40
0.0
  9
$PELEVATION
 40
0.0
  9
$THICKNESS
 40
0.0
  9
$LIMCHECK
 70
     0
  9
$CHAMFERA
 40
0.0
  9
$CHAMFERB
 40
0.0
  9
$CHAMFERC
 40
0.0
  9
$CHAMFERD
 40
0.0
  9
$SKPOLY
 70
     0
  9
$TDCREATE
 40
2456105.611547801
  9
$TDUCREATE
 40
2456105.528214468
  9
$TDUPDATE
 40
2456105.636717072
  9
$TDUUPDATE
 40
2456105.553383738
  9
$TDINDWG
 40
0.0006092593
  9
$TDUSRTIMER
 40
0.0006092593
  9
$USRTIMER
 70
     1
  9
$ANGBASE
 50
0.0
  9
$ANGDIR
 70
     0
  9
$PDMODE
 70
     0
  9
$PDSIZE
 40
0.0
  9
$PLINEWID
 40
0.0
  9
$SPLFRAME
 70
     0
  9
$SPLINETYPE
 70
     6
  9
$SPLINESEGS
 70
     8
  9
$HANDSEED
  5
669
  9
$SURFTAB1
 70
     6
  9
$SURFTAB2
 70
     6
  9
$SURFTYPE
 70
     6
  9
$SURFU
 70
     6
  9
$SURFV
 70
     6
  9
$UCSBASE
  2

  9
$UCSNAME
  2

  9
$UCSORG
 10
0.0
 20
0.0
 30
0.0
  9
$UCSXDIR
 10
1.0
 20
0.0
 30
0.0
  9
$UCSYDIR
 10
0.0
 20
1.0
 30
0.0
  9
$UCSORTHOREF
  2

  9
$UCSORTHOVIEW
 70
     0
  9
$UCSORGTOP
 10
0.0
 20
0.0
 30
0.0
  9
$UCSORGBOTTOM
 10
0.0
 20
0.0
 30
0.0
  9
$UCSORGLEFT
 10
0.0
 20
0.0
 30
0.0
  9
$UCSORGRIGHT
 10
0.0
 20
0.0
 30
0.0
  9
$UCSORGFRONT
 10
0.0
 20
0.0
 30
0.0
  9
$UCSORGBACK
 10
0.0
 20
0.0
 30
0.0
  9
$PUCSBASE
  2

  9
$PUCSNAME
  2

  9
$PUCSORG
 10
0.0
 20
0.0
 30
0.0
  9
$PUCSXDIR
 10
1.0
 20
0.0
 30
0.0
  9
$PUCSYDIR
 10
0.0
 20
1.0
 30
0.0
  9
$PUCSORTHOREF
  2

  9
$PUCSORTHOVIEW
 70
     0
  9
$PUCSORGTOP
 10
0.0
 20
0.0
 30
0.0
  9
$PUCSORGBOTTOM
 10
0.0
 20
0.0
 30
0.0
  9
$PUCSORGLEFT
 10
0.0
 20
0.0
 30
0.0
  9
$PUCSORGRIGHT
 10
0.0
 20
0.0
 30
0.0
  9
$PUCSORGFRONT
 10
0.0
 20
0.0
 30
0.0
  9
$PUCSORGBACK
 10
0.0
 20
0.0
 30
0.0
  9
$USERI1
 70
     0
  9
$USERI2
 70
     0
  9
$USERI3
 70
     0
  9
$USERI4
 70
     0
  9
$USERI5
 70
     0
  9
$USERR1
 40
0.0
  9
$USERR2
 40
0.0
  9
$USERR3
 40
0.0
  9
$USERR4
 40
0.0
  9
$USERR5
 40
0.0
  9
$WORLDVIEW
 70
     1
  9
$SHADEDGE
 70
     3
  9
$SHADEDIF
 70
    70
  9
$TILEMODE
 70
     1
  9
$MAXACTVP
 70
    64
  9
$PINSBASE
 10
0.0
 20
0.0
 30
0.0
  9
$PLIMCHECK
 70
     0
  9
$PEXTMIN
 10
0.0
 20
0.0
 30
0.0
  9
$PEXTMAX
 10
420.0
 20
297.0
 30
0.0
  9
$PLIMMIN
 10
0.0
 20
0.0
  9
$PLIMMAX
 10
420.0
 20
297.0
  9
$UNITMODE
 70
     0
  9
$VISRETAIN
 70
     1
  9
$PLINEGEN
 70
     0
  9
$PSLTSCALE
 70
     1
  9
$TREEDEPTH
 70
  3020
  9
$CMLSTYLE
  2
Standard
  9
$CMLJUST
 70
     0
  9
$CMLSCALE
 40
1.0
  9
$PROXYGRAPHICS
 70
     1
  9
$MEASUREMENT
 70
     1
  9
$CELWEIGHT
370
    -1
  9
$ENDCAPS
280
     0
  9
$JOINSTYLE
280
     0
  9
$LWDISPLAY
290
     0
  9
$INSUNITS
 70
     4
  9
$HYPERLINKBASE
  1

  9
$STYLESHEET
  1

  9
$XEDIT
290
     1
  9
$CEPSNTYPE
380
     0
  9
$PSTYLEMODE
290
     1
  9
$FINGERPRINTGUID
  2
{8507AC59-D206-46FD-920B-693407F8D7CF}
  9
$VERSIONGUID
  2
{1A34B860-451E-4A93-919B-0B565B990C87}
  9
$EXTNAMES
290
     1
  9
$PSVPSCALE
 40
0.0
  9
$OLESTARTUP
290
     0
  0
ENDSEC
  0
SECTION
  2
CLASSES
  0
CLASS
  1
ACDBDICTIONARYWDFLT
  2
AcDbDictionaryWithDefault
  3
ObjectDBX Classes
 90
        0
280
     0
281
     0
  0
CLASS
  1
MATERIAL
  2
AcDbMaterial
  3
ObjectDBX Classes
 90
     1153
280
     0
281
     0
  0
CLASS
  1
VISUALSTYLE
  2
AcDbVisualStyle
  3
ObjectDBX Classes
 90
     4095
280
     0
281
     0
  0
CLASS
  1
SCALE
  2
AcDbScale
  3
ObjectDBX Classes
 90
     1153
280
     0
281
     0
  0
CLASS
  1
TABLESTYLE
  2
AcDbTableStyle
  3
ObjectDBX Classes
 90
     4095
280
     0
281
     0
  0
CLASS
  1
MLEADERSTYLE
  2
AcDbMLeaderStyle
  3
ACDB_MLEADERSTYLE_CLASS
 90
     4095
280
     0
281
     0
  0
CLASS
  1
CELLSTYLEMAP
  2
AcDbCellStyleMap
  3
ObjectDBX Classes
 90
     1152
280
     0
281
     0
  0
CLASS
  1
DICTIONARYVAR
  2
AcDbDictionaryVar
  3
ObjectDBX Classes
 90
        0
280
     0
281
     0
  0
CLASS
  1
ACDBPLACEHOLDER
  2
AcDbPlaceHolder
  3
ObjectDBX Classes
 90
        0
280
     0
281
     0
  0
CLASS
  1
LAYOUT
  2
AcDbLayout
  3
ObjectDBX Classes
 90
        0
280
     0
281
     0
  0
CLASS
  1
ACME_DOCUMENT
  2
AcMeDbDoc
  3
AcMeServices
 90
     1024
280
     0
281
     0
  0
CLASS
  1
ACMESCOPE
  2
AcMeScope
  3
AcMeServices
 90
     1024
280
     0
281
     0
  0
CLASS
  1
ACMECOMMANDHISTORY
  2
AcMeCommandHistory
  3
AcMeServices
 90
     1024
280
     0
281
     0
  0
CLASS
  1
ACIMSYSVARMAN
  2
AcImSysVarManager
  3
AcMeServices
 90
     1024
280
     0
281
     0
  0
CLASS
  1
ACIMINTSYSVAR
  2
AcImIntSysVar
  3
AcMeServices
 90
     1024
280
     0
281
     0
  0
CLASS
  1
ACMEDRAWINGMAN
  2
AcMeDrawingMan
  3
AcMeServices
 90
     1024
280
     0
281
     0
  0
CLASS
  1
ACMEVIEW
  2
AcMeView
  3
AcMeServices
 90
     1024
280
     0
281
     0
  0
CLASS
  1
ACDBENTITYCACHE
  2
AcMeEntityCache
  3
AcMeServices
 90
     1024
280
     0
281
     0
  0
CLASS
  1
ACMESTATEMGR
  2
AcMeStateMgr
  3
AcMeServices
 90
     1024
280
     0
281
     0
  0
CLASS
  1
ACGREFMASTER
  2
AcGrefMaster
  3
AcAttribServices
 90
     1024
280
     0
281
     0
  0
CLASS
  1
AM_DRAWING_MGR
  2
AcDmDwgMgr
  3
AcMechDwgViewMgmt
 90
     1024
280
     0
281
     0
  0
CLASS
  1
AM_DWG_DOCUMENT
  2
AcDmDwgDocument
  3
AcMechDwgViewMgmt
 90
     1024
280
     0
281
     0
  0
CLASS
  1
AM_DWG_SHEET
  2
AcDmSheet
  3
AcMechDwgViewMgmt
 90
     1024
280
     0
281
     0
  0
CLASS
  1
AM_VIEWDIMPARMAP
  2
AcDmViewDimParMap
  3
AcMechDwgViewMgmt
 90
     1024
280
     0
281
     0
  0
CLASS
  1
AMDTINTERNALREACTOR
  2
AmdtInternalReactor
  3
AcMeServices
 90
     1024
280
     0
281
     0
  0
CLASS
  1
ACIMREALSYSVAR
  2
AcImRealSysVar
  3
AcMeServices
 90
     1024
280
     0
281
     0
  0
CLASS
  1
AM_DWGMGR_NAME
  2
AcDmDwgMgrName
  3
AcMechDwgViewMgmt
 90
     1024
280
     0
281
     0
  0
CLASS
  1
ACME_DATABASE
  2
AcMeDbDatabase
  3
AcMeServices
 90
     1024
280
     0
281
     0
  0
CLASS
  1
ACRFINSADJUSTERMGR
  2
AcRfInsAdjusterMgr
  3
AcMeServices
 90
     1024
280
     0
281
     0
  0
CLASS
  1
ACGREFACADMASTER
  2
AcGrefacadMaster
  3
AcGrefServices
 90
     1024
280
     0
281
     0
  0
CLASS
  1
AMDTMENUSTATEMGR
  2
AmdtMenuStateMgr
  3
McadcomServices
 90
     1024
280
     0
281
     0
  0
CLASS
  1
AMDTMCOMMENUSTATE
  2
AmdtMcomMenuState
  3
McadcomServices
 90
     1024
280
     0
281
     0
  0
CLASS
  1
AMIMASTER
  2
AmiMaster
  3
AmiServices
 90
     1024
280
     0
281
     0
  0
CLASS
  1
AMGSETTINGSOBJ
  2
AmgSettingsObj
  3
"AcadM|Product Description: AutoCAD Mechanical|Company: Autodesk, Inc."
 90
     1024
280
     0
281
     0
  0
CLASS
  1
MAPIAMMOUDLE
  2
MApiAmModule
  3
MApiAmServices
 90
     1024
280
     0
281
     0
  0
CLASS
  1
ACIMSTRSYSVAR
  2
AcImStrSysVar
  3
AcMeServices
 90
     1024
280
     0
281
     0
  0
CLASS
  1
AMDTADMENUSTATE
  2
AmdtAdMenuState
  3
DesignerServices
 90
     1024
280
     0
281
     0
  0
CLASS
  1
ADAPPL
  2
AcAdAppl
  3
DesignerServices
 90
     1024
280
     0
281
     0
  0
CLASS
  1
DEPMGR
  2
AcAdDepMgr
  3
DesignerServices
 90
     1024
280
     0
281
     0
  0
CLASS
  1
PARAMMGR
  2
AcAdParamMgr
  3
DesignerServices
 90
     1024
280
     0
281
     0
  0
CLASS
  1
PARAMSCOPE
  2
AcAdParamScope
  3
DesignerServices
 90
     1024
280
     0
281
     0
  0
CLASS
  1
NAMEDAPPL
  2
AcAdNamedAppl
  3
DesignerServices
 90
     1024
280
     0
281
     0
  0
CLASS
  1
AMDTDMMENUSTATE
  2
AmdtDmMenuState
  3
AcMechDwgViewMgmt
 90
     1024
280
     0
281
     0
  0
CLASS
  1
AMDTAMMENUSTATE
  2
AmdtAmMenuState
  3
DesignerAssemblies
 90
     1024
280
     0
281
     0
  0
CLASS
  1
ACAMPROJECT
  2
AcAmProject
  3
DesignerAssemblies
 90
     1024
280
     0
281
     0
  0
CLASS
  1
ACAMGRCOMPDEF
  2
AcAmGrCompDef
  3
DesignerAssemblies
 90
     1024
280
     0
281
     0
  0
CLASS
  1
ACAMCOMPDEF
  2
AcAmCompDef
  3
DesignerAssemblies
 90
     1024
280
     0
281
     0
  0
CLASS
  1
ACAMCOMPDEFMGR
  2
AcAmCompDefMgr
  3
DesignerAssemblies
 90
     1024
280
     0
281
     0
  0
CLASS
  1
AMCONTEXTMGR
  2
AcAmContextMgr
  3
DesignerAssemblies
 90
     1024
280
     0
281
     0
  0
CLASS
  1
ACAMCONTEXTMODELER
  2
AcAmContextModeler
  3
DesignerAssemblies
 90
     1024
280
     0
281
     0
  0
CLASS
  1
ACMDATADICTIONARY
  2
AcmDataDictionary
  3
"AcmSymBB|Product Description: AutoCAD Mechanical|Company: Autodesk, Inc."
 90
     1024
280
     0
281
     0
  0
CLASS
  1
CATALOGSTATE
  2
AcAmCatalogState
  3
DesignerAssemblies
 90
     1024
280
     0
281
     0
  0
CLASS
  1
ACAMGRCOMPDEFSET
  2
AcAmGrCompDefSet
  3
DesignerAssemblies
 90
     1024
280
     0
281
     0
  0
CLASS
  1
AMDTBROWSERDBTAB
  2
AmdtBrowserDbTab
  3
McadcomServices
 90
     1024
280
     0
281
     0
  0
CLASS
  1
CBROWSERAPPOBJECT
  2
CBrowserAppObject
  3
McadcomServices
 90
     1024
280
     0
281
     0
  0
CLASS
  1
DM_PLACEHOLDER
  2
AcDmSelsetPlaceholder
  3
AcMechDwgViewMgmt
 90
     1024
280
     0
281
     0
  0
CLASS
  1
ACMSTANDARDISO
  2
AcmStandardISO
  3
"Amdt_StdImp|Product Description: AutoCAD Mechanical|Company: Autodesk, Inc."
 90
     1024
280
     0
281
     0
  0
CLASS
  1
AMDTEDGESTANDARDISO13715
  2
AmdtEdgeStdISO13715
  3
"Amdt_StdImp|Product Description: AutoCAD Mechanical|Company: Autodesk, Inc."
 90
     1024
280
     0
281
     0
  0
CLASS
  1
ACMSURFSTANDARDISO2002
  2
AcmSurfTextStdISO2002
  3
"Amdt_StdImp|Product Description: AutoCAD Mechanical|Company: Autodesk, Inc."
 90
     1024
280
     0
281
     0
  0
CLASS
  1
ACMFCFSTANDARDISO
  2
AcmFCFStdISO
  3
"Amdt_StdImp|Product Description: AutoCAD Mechanical|Company: Autodesk, Inc."
 90
     1024
280
     0
281
     0
  0
CLASS
  1
ACMWELDSTANDARDISO
  2
AcmWeldingStdISO
  3
"Amdt_StdImp|Product Description: AutoCAD Mechanical|Company: Autodesk, Inc."
 90
     1024
280
     0
281
     0
  0
CLASS
  1
ACMIDSTANDARDISO
  2
AcmIdStdISO
  3
"Amdt_StdImp|Product Description: AutoCAD Mechanical|Company: Autodesk, Inc."
 90
     1024
280
     0
281
     0
  0
CLASS
  1
ACMDATUMSTANDARDISO
  2
AcmDatumStdISO
  3
"Amdt_StdImp|Product Description: AutoCAD Mechanical|Company: Autodesk, Inc."
 90
     1024
280
     0
281
     0
  0
CLASS
  1
ACMBOMSTANDARDISO
  2
AcmBOMStdISO
  3
"Amdt_StdImp|Product Description: AutoCAD Mechanical|Company: Autodesk, Inc."
 90
     1024
280
     0
281
     0
  0
CLASS
  1
ACMDETAILSTANDARDISO
  2
AmdtDetailSymStdISO
  3
"Amdt_StdImp|Product Description: AutoCAD Mechanical|Company: Autodesk, Inc."
 90
     1024
280
     0
281
     0
  0
CLASS
  1
ACMSECTIONSTANDARDISO2001
  2
AmdtSectionSymStdISO2001
  3
"Amdt_StdImp|Product Description: AutoCAD Mechanical|Company: Autodesk, Inc."
 90
     1024
280
     0
281
     0
  0
CLASS
  1
ACMCENTERLINESTANDARDISO
  2
AmdtCenterLineStdISO
  3
"Amdt_StdImp|Product Description: AutoCAD Mechanical|Company: Autodesk, Inc."
 90
     1024
280
     0
281
     0
  0
CLASS
  1
ACMTHREADLINESTANDARDISO
  2
AmdtThreadLineStdISO
  3
"Amdt_StdImp|Product Description: AutoCAD Mechanical|Company: Autodesk, Inc."
 90
     1024
280
     0
281
     0
  0
CLASS
  1
ACMNOTESTANDARDISO
  2
AmdtNoteStdISO
  3
"Amdt_StdImp|Product Description: AutoCAD Mechanical|Company: Autodesk, Inc."
 90
     1024
280
     0
281
     0
  0
CLASS
  1
ACMTAPERSTANDARDISO
  2
AcmTaperStdISO
  3
"Amdt_StdImp|Product Description: AutoCAD Mechanical|Company: Autodesk, Inc."
 90
     1024
280
     0
281
     0
  0
CLASS
  1
ACMANOOTATIONVIEWSTANDARDISO
  2
AmdtAnViewStdISO
  3
"Amdt_StdImp|Product Description: AutoCAD Mechanical|Company: Autodesk, Inc."
 90
     1024
280
     0
281
     0
  0
CLASS
  1
ACAMGLAYSTD
  2
AcAmgLayStd
  3
"AmgLay|Product Description: AutoCAD Mechanical|Company: Autodesk, Inc."
 90
     1024
280
     0
281
     0
  0
CLASS
  1
ACAMGDIMSTD
  2
AcAmgDimStd
  3
"AmgDim|Product Description: AutoCAD Mechanical|Company: Autodesk, Inc."
 90
     1024
280
     0
281
     0
  0
CLASS
  1
ACAMGHOLECHARTSTDISO
  2
AcAmgHoleChartStdISO
  3
AmgDim|Product Description: AutoCAD Mechanical|Company: Autodesk, Inc.
 90
     1024
280
     0
281
     0
  0
CLASS
  1
AMGOBJPROPCFG
  2
AmgObjPropCfg
  3
"AmgLay|Product Description: AutoCAD Mechanical|Company: Autodesk, Inc."
 90
     1025
280
     0
281
     0
  0
CLASS
  1
ACAMGTITLESTD
  2
AcAmgTitleStd
  3
"AmgTitle|Product Description: AutoCAD Mechanical|Company: Autodesk, Inc."
 90
     4095
280
     0
281
     0
  0
CLASS
  1
AMDTNOTETEMPLATEDB
  2
AmdtNoteTemplateDB
  3
AcmSymBB|Product Description: AutoCAD Mechanical|Company: Autodesk, Inc.
 90
     1024
280
     0
281
     0
  0
CLASS
  1
EXACXREFPANELOBJECT
  2
ExAcXREFPanelObject
  3
EXAC_ESW
 90
     1025
280
     0
281
     0
  0
CLASS
  1
NPOCOLLECTION
  2
AcDbImpNonPersistentObjectsCollection
  3
ObjectDBX Classes
 90
     1153
280
     0
281
     0
  0
CLASS
  1
ACAMGFILTERDAT
  2
AcAmgFilterDat
  3
"AcadM|Product Description: AutoCAD Mechanical|Company: Autodesk, Inc."
 90
     1024
280
     0
281
     0
  0
ENDSEC
  0
SECTION
  2
TABLES
  0
TABLE
  2
VPORT
  5
8
102
{ACAD_XDICTIONARY
360
500
102
}
330
0
100
AcDbSymbolTable
 70
     1
  0
VPORT
  5
62
330
8
100
AcDbSymbolTableRecord
100
AcDbViewportTableRecord
  2
*Active
 70
     0
 10
0.0
 20
0.0
 11
1.0
 21
1.0
 12
231.9457957126471
 22
172.2609958835049
 13
0.0
 23
0.0
 14
1.0
 24
1.0
 15
0.0
 25
0.0
 16
0.0
 26
0.0
 36
1.0
 17
0.0
 27
0.0
 37
0.0
 40
170.9984277896574
 41
1.610192837465564
 42
50.0
 43
0.0
 44
0.0
 50
0.0
 51
0.0
 71
     0
 72
   100
 73
     1
 74
     1
 75
     0
 76
     0
 77
     0
 78
     0
281
     0
 65
     0
110
0.0
120
0.0
130
0.0
111
1.0
121
0.0
131
0.0
112
0.0
122
1.0
132
0.0
 79
     0
146
0.0
  0
ENDTAB
  0
TABLE
  2
LTYPE
  5
5
330
0
100
AcDbSymbolTable
 70
    69
  0
LTYPE
  5
66
330
5
100
AcDbSymbolTableRecord
100
AcDbLinetypeTableRecord
  2
ByBlock
 70
     0
  3

 72
    65
 73
     0
 40
0.0
  0
LTYPE
  5
67
330
5
100
AcDbSymbolTableRecord
100
AcDbLinetypeTableRecord
  2
ByLayer
 70
     0
  3

 72
    65
 73
     0
 40
0.0
  0
LTYPE
  5
68
330
5
100
AcDbSymbolTableRecord
100
AcDbLinetypeTableRecord
  2
Continuous
 70
     0
  3
Solid line
 72
    65
 73
     0
 40
0.0
  0
LTYPE
  5
7F
330
5
100
AcDbSymbolTableRecord
100
AcDbLinetypeTableRecord
  2
Section_View_Lines
 70
     0
  3
Section View Lines
 72
    65
 73
     4
 40
0.8406
 49
0.6614
 74
     0
 49
-0.0827
 74
     0
 49
0.0138
 74
     0
 49
-0.0827
 74
     0
  0
LTYPE
  5
80
330
5
100
AcDbSymbolTableRecord
100
AcDbLinetypeTableRecord
  2
CHAIN
 70
     0
  3
Chain ____ _ ____ _ ____ _ ____ _ ____ _ ____
 72
    65
 73
     4
 40
0.3543
 49
0.2362
 74
     0
 49
-0.0295
 74
     0
 49
0.0591
 74
     0
 49
-0.0295
 74
     0
  0
LTYPE
  5
81
330
5
100
AcDbSymbolTableRecord
100
AcDbLinetypeTableRecord
  2
DASH_DOT
 70
     0
  3
Dash dot _._._._._._._._._._._._._._._.
 72
    65
 73
     4
 40
0.182
 49
0.1181
 74
     0
 49
-0.0295
 74
     0
 49
0.0049
 74
     0
 49
-0.0295
 74
     0
  0
LTYPE
  5
82
330
5
100
AcDbSymbolTableRecord
100
AcDbLinetypeTableRecord
  2
DASH_DOUBLE_DOT
 70
     0
  3
Dash Double Dot __ __ . __ __ . __ __ . __ _
 72
    65
 73
     6
 40
0.2164
 49
0.1181
 74
     0
 49
-0.0295
 74
     0
 49
0.0049
 74
     0
 49
-0.0295
 74
     0
 49
0.0049
 74
     0
 49
-0.0295
 74
     0
  0
LTYPE
  5
83
330
5
100
AcDbSymbolTableRecord
100
AcDbLinetypeTableRecord
  2
DASH_TRIPLE_DOT
 70
     0
  3
Dash Triple-Dot _ . . . _ . . . _ . . . _
 72
    65
 73
     8
 40
0.2508
 49
0.1181
 74
     0
 49
-0.0295
 74
     0
 49
0.0049
 74
     0
 49
-0.0295
 74
     0
 49
0.0049
 74
     0
 49
-0.0295
 74
     0
 49
0.0049
 74
     0
 49
-0.0295
 74
     0
  0
LTYPE
  5
84
330
5
100
AcDbSymbolTableRecord
100
AcDbLinetypeTableRecord
  2
DASHED
 70
     0
  3
Dashed __ __ __ __ __ __ __ __ __ __ __ __ __ _
 72
    65
 73
     2
 40
0.2068
 49
0.1655
 74
     0
 49
-0.0413
 74
     0
  0
LTYPE
  5
85
330
5
100
AcDbSymbolTableRecord
100
AcDbLinetypeTableRecord
  2
DASHED_SPACE
 70
     0
  3
Dashed Space __ __ __ __ __ __ __ __ __ __ __ _
 72
    65
 73
     2
 40
0.2067
 49
0.1654
 74
     0
 49
-0.0413
 74
     0
  0
LTYPE
  5
86
330
5
100
AcDbSymbolTableRecord
100
AcDbLinetypeTableRecord
  2
DOTTED
 70
     0
  3
Dotted . . . . . . . . . . . . . . . . . . . . 
 72
    65
 73
     2
 40
0.0481
 49
0.0068
 74
     0
 49
-0.0413
 74
     0
  0
LTYPE
  5
87
330
5
100
AcDbSymbolTableRecord
100
AcDbLinetypeTableRecord
  2
DOUBLE_DASH_CHAIN
 70
     0
  3
Double Dash Chain ___ _ _ ___ _ _ ___ _ _ ___ _
 72
    65
 73
     6
 40
1.240299999999999
 49
0.6614
 74
     0
 49
-0.0827
 74
     0
 49
0.1654
 74
     0
 49
-0.0827
 74
     0
 49
0.1654
 74
     0
 49
-0.0827
 74
     0
  0
LTYPE
  5
88
330
5
100
AcDbSymbolTableRecord
100
AcDbLinetypeTableRecord
  2
DOUBLE_DASH_DOT
 70
     0
  3
Double Dash Dot __ __ . __ __ . __ __ . __ _
 72
    65
 73
     6
 40
0.3296
 49
0.1181
 74
     0
 49
-0.0295
 74
     0
 49
0.1181
 74
     0
 49
-0.0295
 74
     0
 49
0.0049
 74
     0
 49
-0.0295
 74
     0
  0
LTYPE
  5
89
330
5
100
AcDbSymbolTableRecord
100
AcDbLinetypeTableRecord
  2
DOUBLE_DASH_DOUBLE_DOT
 70
     0
  3
Double Dash Double Dot _ _ . . _ _ . . _ _
 72
    65
 73
     8
 40
0.364
 49
0.1181
 74
     0
 49
-0.0295
 74
     0
 49
0.1181
 74
     0
 49
-0.0295
 74
     0
 49
0.0049
 74
     0
 49
-0.0295
 74
     0
 49
0.0049
 74
     0
 49
-0.0295
 74
     0
  0
LTYPE
  5
8A
330
5
100
AcDbSymbolTableRecord
100
AcDbLinetypeTableRecord
  2
DOUBLE_DASH_TRIPLE_DOT
 70
     0
  3
Double Dash Triple Dot __ __ . . . __ __ . . .
 72
    65
 73
    10
 40
0.3984
 49
0.1181
 74
     0
 49
-0.0295
 74
     0
 49
0.1181
 74
     0
 49
-0.0295
 74
     0
 49
0.0049
 74
     0
 49
-0.0295
 74
     0
 49
0.0049
 74
     0
 49
-0.0295
 74
     0
 49
0.0049
 74
     0
 49
-0.0295
 74
     0
  0
LTYPE
  5
8B
330
5
100
AcDbSymbolTableRecord
100
AcDbLinetypeTableRecord
  2
LONG_DASH_DOTTED
 70
     0
  3
Long Dash Dotted ____ . ____ . ____ . ____ . _
 72
    65
 73
     4
 40
0.3001
 49
0.2362
 74
     0
 49
-0.0295
 74
     0
 49
0.0049
 74
     0
 49
-0.0295
 74
     0
  0
LTYPE
  5
8C
330
5
100
AcDbSymbolTableRecord
100
AcDbLinetypeTableRecord
  2
LONG_DASH_DOUBLE_DOT
 70
     0
  3
Long Dash Double Dot ____ . . ____ . . ____ . .
 72
    65
 73
     6
 40
0.3345
 49
0.2362
 74
     0
 49
-0.0295
 74
     0
 49
0.0049
 74
     0
 49
-0.0295
 74
     0
 49
0.0049
 74
     0
 49
-0.0295
 74
     0
  0
LTYPE
  5
8D
330
5
100
AcDbSymbolTableRecord
100
AcDbLinetypeTableRecord
  2
LONG_DASH_TRIPLE_DOT
 70
     0
  3
Long Dash Triple Dot ____ ... ____ ... ____
 72
    65
 73
     8
 40
0.3689
 49
0.2362
 74
     0
 49
-0.0295
 74
     0
 49
0.0049
 74
     0
 49
-0.0295
 74
     0
 49
0.0049
 74
     0
 49
-0.0295
 74
     0
 49
0.0049
 74
     0
 49
-0.0295
 74
     0
  0
LTYPE
  5
8E
330
5
100
AcDbSymbolTableRecord
100
AcDbLinetypeTableRecord
  2
BORDER
 70
     0
  3
Border __ __ . __ __ . __ __ . __ __ . __ __ .
 72
    65
 73
     6
 40
44.45
 49
12.7
 74
     0
 49
-6.349999999999999
 74
     0
 49
12.7
 74
     0
 49
-6.349999999999999
 74
     0
 49
0.0
 74
     0
 49
-6.349999999999999
 74
     0
  0
LTYPE
  5
8F
330
5
100
AcDbSymbolTableRecord
100
AcDbLinetypeTableRecord
  2
BORDER2
 70
     0
  3
Border (.5x) __.__.__.__.__.__.__.__.__.__.__.
 72
    65
 73
     6
 40
22.225
 49
6.349999999999999
 74
     0
 49
-3.174999999999999
 74
     0
 49
6.349999999999999
 74
     0
 49
-3.174999999999999
 74
     0
 49
0.0
 74
     0
 49
-3.174999999999999
 74
     0
  0
LTYPE
  5
90
330
5
100
AcDbSymbolTableRecord
100
AcDbLinetypeTableRecord
  2
BORDERX2
 70
     0
  3
Border (2x) ____  ____  .  ____  ____  .  ___
 72
    65
 73
     6
 40
88.9
 49
25.4
 74
     0
 49
-12.7
 74
     0
 49
25.4
 74
     0
 49
-12.7
 74
     0
 49
0.0
 74
     0
 49
-12.7
 74
     0
  0
LTYPE
  5
91
330
5
100
AcDbSymbolTableRecord
100
AcDbLinetypeTableRecord
  2
CENTER
 70
     0
  3
Center ____ _ ____ _ ____ _ ____ _ ____ _ ____
 72
    65
 73
     4
 40
50.8
 49
31.75
 74
     0
 49
-6.349999999999999
 74
     0
 49
6.349999999999999
 74
     0
 49
-6.349999999999999
 74
     0
  0
LTYPE
  5
92
330
5
100
AcDbSymbolTableRecord
100
AcDbLinetypeTableRecord
  2
CENTER2
 70
     0
  3
Center (.5x) ___ _ ___ _ ___ _ ___ _ ___ _ ___
 72
    65
 73
     4
 40
28.575
 49
19.05
 74
     0
 49
-3.174999999999999
 74
     0
 49
3.174999999999999
 74
     0
 49
-3.174999999999999
 74
     0
  0
LTYPE
  5
93
330
5
100
AcDbSymbolTableRecord
100
AcDbLinetypeTableRecord
  2
CENTERX2
 70
     0
  3
Center (2x) ________  __  ________  __  _____
 72
    65
 73
     4
 40
101.6
 49
63.5
 74
     0
 49
-12.7
 74
     0
 49
12.7
 74
     0
 49
-12.7
 74
     0
  0
LTYPE
  5
94
330
5
100
AcDbSymbolTableRecord
100
AcDbLinetypeTableRecord
  2
DASHDOT2
 70
     0
  3
Dash dot (.5x) _._._._._._._._._._._._._._._.
 72
    65
 73
     4
 40
12.7
 49
6.349999999999999
 74
     0
 49
-3.174999999999999
 74
     0
 49
0.0
 74
     0
 49
-3.174999999999999
 74
     0
  0
LTYPE
  5
95
330
5
100
AcDbSymbolTableRecord
100
AcDbLinetypeTableRecord
  2
DASHDOTX2
 70
     0
  3
Dash dot (2x) ____  .  ____  .  ____  .  ___
 72
    65
 73
     4
 40
50.8
 49
25.4
 74
     0
 49
-12.7
 74
     0
 49
0.0
 74
     0
 49
-12.7
 74
     0
  0
LTYPE
  5
96
330
5
100
AcDbSymbolTableRecord
100
AcDbLinetypeTableRecord
  2
DASHED2
 70
     0
  3
Dashed (.5x) _ _ _ _ _ _ _ _ _ _ _ _ _ _ _ _ _
 72
    65
 73
     2
 40
9.524999999999998
 49
6.349999999999999
 74
     0
 49
-3.174999999999999
 74
     0
  0
LTYPE
  5
97
330
5
100
AcDbSymbolTableRecord
100
AcDbLinetypeTableRecord
  2
DASHEDX2
 70
     0
  3
Dashed (2x) ____  ____  ____  ____  ____  ___
 72
    65
 73
     2
 40
38.1
 49
25.4
 74
     0
 49
-12.7
 74
     0
  0
LTYPE
  5
98
330
5
100
AcDbSymbolTableRecord
100
AcDbLinetypeTableRecord
  2
DIVIDE
 70
     0
  3
Divide ____ . . ____ . . ____ . . ____ . . ____
 72
    65
 73
     6
 40
31.75
 49
12.7
 74
     0
 49
-6.349999999999999
 74
     0
 49
0.0
 74
     0
 49
-6.349999999999999
 74
     0
 49
0.0
 74
     0
 49
-6.349999999999999
 74
     0
  0
LTYPE
  5
99
330
5
100
AcDbSymbolTableRecord
100
AcDbLinetypeTableRecord
  2
DIVIDE2
 70
     0
  3
Divide (.5x) __..__..__..__..__..__..__..__.._
 72
    65
 73
     6
 40
15.875
 49
6.349999999999999
 74
     0
 49
-3.174999999999999
 74
     0
 49
0.0
 74
     0
 49
-3.174999999999999
 74
     0
 49
0.0
 74
     0
 49
-3.174999999999999
 74
     0
  0
LTYPE
  5
9A
330
5
100
AcDbSymbolTableRecord
100
AcDbLinetypeTableRecord
  2
DIVIDEX2
 70
     0
  3
Divide (2x) ________  .  .  ________  .  .  _
 72
    65
 73
     6
 40
63.49999999999999
 49
25.4
 74
     0
 49
-12.7
 74
     0
 49
0.0
 74
     0
 49
-12.7
 74
     0
 49
0.0
 74
     0
 49
-12.7
 74
     0
  0
LTYPE
  5
9B
330
5
100
AcDbSymbolTableRecord
100
AcDbLinetypeTableRecord
  2
DOT
 70
     0
  3
Dot . . . . . . . . . . . . . . . . . . . . . .
 72
    65
 73
     2
 40
6.349999999999999
 49
0.0
 74
     0
 49
-6.349999999999999
 74
     0
  0
LTYPE
  5
9C
330
5
100
AcDbSymbolTableRecord
100
AcDbLinetypeTableRecord
  2
DOT2
 70
     0
  3
Dot (.5x) .....................................
 72
    65
 73
     2
 40
3.174999999999999
 49
0.0
 74
     0
 49
-3.174999999999999
 74
     0
  0
LTYPE
  5
9D
330
5
100
AcDbSymbolTableRecord
100
AcDbLinetypeTableRecord
  2
DOTX2
 70
     0
  3
Dot (2x) .  .  .  .  .  .  .  .  .  .  .  .  . 
 72
    65
 73
     2
 40
12.7
 49
0.0
 74
     0
 49
-12.7
 74
     0
  0
LTYPE
  5
9E
330
5
100
AcDbSymbolTableRecord
100
AcDbLinetypeTableRecord
  2
HIDDEN
 70
     0
  3
Hidden __ __ __ __ __ __ __ __ __ __ __ __ __ _
 72
    65
 73
     2
 40
9.524999999999998
 49
6.349999999999999
 74
     0
 49
-3.174999999999999
 74
     0
  0
LTYPE
  5
9F
330
5
100
AcDbSymbolTableRecord
100
AcDbLinetypeTableRecord
  2
HIDDEN2
 70
     0
  3
Hidden (.5x) _ _ _ _ _ _ _ _ _ _ _ _ _ _ _ _ _
 72
    65
 73
     2
 40
4.762499999999999
 49
3.174999999999999
 74
     0
 49
-1.587499999999999
 74
     0
  0
LTYPE
  5
A0
330
5
100
AcDbSymbolTableRecord
100
AcDbLinetypeTableRecord
  2
HIDDENX2
 70
     0
  3
Hidden (2x) ____ ____ ____ ____ ____ ____ ____
 72
    65
 73
     2
 40
19.05
 49
12.7
 74
     0
 49
-6.349999999999999
 74
     0
  0
LTYPE
  5
A1
330
5
100
AcDbSymbolTableRecord
100
AcDbLinetypeTableRecord
  2
PHANTOM
 70
     0
  3
Phantom ______  __  __  ______  __  __  ______
 72
    65
 73
     6
 40
63.5
 49
31.75
 74
     0
 49
-6.349999999999999
 74
     0
 49
6.349999999999999
 74
     0
 49
-6.349999999999999
 74
     0
 49
6.349999999999999
 74
     0
 49
-6.349999999999999
 74
     0
  0
LTYPE
  5
A2
330
5
100
AcDbSymbolTableRecord
100
AcDbLinetypeTableRecord
  2
PHANTOM2
 70
     0
  3
Phantom (.5x) ___ _ _ ___ _ _ ___ _ _ ___ _ _
 72
    65
 73
     6
 40
31.75
 49
15.875
 74
     0
 49
-3.174999999999999
 74
     0
 49
3.174999999999999
 74
     0
 49
-3.174999999999999
 74
     0
 49
3.174999999999999
 74
     0
 49
-3.174999999999999
 74
     0
  0
LTYPE
  5
A3
330
5
100
AcDbSymbolTableRecord
100
AcDbLinetypeTableRecord
  2
PHANTOMX2
 70
     0
  3
Phantom (2x) ____________    ____    ____   _
 72
    65
 73
     6
 40
127.0
 49
63.5
 74
     0
 49
-12.7
 74
     0
 49
12.7
 74
     0
 49
-12.7
 74
     0
 49
12.7
 74
     0
 49
-12.7
 74
     0
  0
LTYPE
  5
A4
330
5
100
AcDbSymbolTableRecord
100
AcDbLinetypeTableRecord
  2
ACAD_ISO02W100
 70
     0
  3
ISO dash __ __ __ __ __ __ __ __ __ __ __ __ __
 72
    65
 73
     2
 40
15.0
 49
12.0
 74
     0
 49
-3.0
 74
     0
  0
LTYPE
  5
A5
330
5
100
AcDbSymbolTableRecord
100
AcDbLinetypeTableRecord
  2
ACAD_ISO03W100
 70
     0
  3
ISO dash space __    __    __    __    __    __
 72
    65
 73
     2
 40
30.0
 49
12.0
 74
     0
 49
-18.0
 74
     0
  0
LTYPE
  5
A6
330
5
100
AcDbSymbolTableRecord
100
AcDbLinetypeTableRecord
  2
ACAD_ISO04W100
 70
     0
  3
ISO long-dash dot ____ . ____ . ____ . ____ . _
 72
    65
 73
     4
 40
30.0
 49
24.0
 74
     0
 49
-3.0
 74
     0
 49
0.0
 74
     0
 49
-3.0
 74
     0
  0
LTYPE
  5
A7
330
5
100
AcDbSymbolTableRecord
100
AcDbLinetypeTableRecord
  2
ACAD_ISO05W100
 70
     0
  3
ISO long-dash double-dot ____ .. ____ .. ____ .
 72
    65
 73
     6
 40
33.0
 49
24.0
 74
     0
 49
-3.0
 74
     0
 49
0.0
 74
     0
 49
-3.0
 74
     0
 49
0.0
 74
     0
 49
-3.0
 74
     0
  0
LTYPE
  5
A8
330
5
100
AcDbSymbolTableRecord
100
AcDbLinetypeTableRecord
  2
ACAD_ISO06W100
 70
     0
  3
ISO long-dash triple-dot ____ ... ____ ... ____
 72
    65
 73
     8
 40
36.0
 49
24.0
 74
     0
 49
-3.0
 74
     0
 49
0.0
 74
     0
 49
-3.0
 74
     0
 49
0.0
 74
     0
 49
-3.0
 74
     0
 49
0.0
 74
     0
 49
-3.0
 74
     0
  0
LTYPE
  5
A9
330
5
100
AcDbSymbolTableRecord
100
AcDbLinetypeTableRecord
  2
ACAD_ISO07W100
 70
     0
  3
ISO dot . . . . . . . . . . . . . . . . . . . .
 72
    65
 73
     2
 40
3.0
 49
0.0
 74
     0
 49
-3.0
 74
     0
  0
LTYPE
  5
AA
330
5
100
AcDbSymbolTableRecord
100
AcDbLinetypeTableRecord
  2
ACAD_ISO08W100
 70
     0
  3
ISO long-dash short-dash ____ __ ____ __ ____ _
 72
    65
 73
     4
 40
36.0
 49
24.0
 74
     0
 49
-3.0
 74
     0
 49
6.0
 74
     0
 49
-3.0
 74
     0
  0
LTYPE
  5
AB
330
5
100
AcDbSymbolTableRecord
100
AcDbLinetypeTableRecord
  2
ACAD_ISO09W100
 70
     0
  3
ISO long-dash double-short-dash ____ __ __ ____
 72
    65
 73
     6
 40
45.0
 49
24.0
 74
     0
 49
-3.0
 74
     0
 49
6.0
 74
     0
 49
-3.0
 74
     0
 49
6.0
 74
     0
 49
-3.0
 74
     0
  0
LTYPE
  5
AC
330
5
100
AcDbSymbolTableRecord
100
AcDbLinetypeTableRecord
  2
ACAD_ISO10W100
 70
     0
  3
ISO dash dot __ . __ . __ . __ . __ . __ . __ .
 72
    65
 73
     4
 40
18.0
 49
12.0
 74
     0
 49
-3.0
 74
     0
 49
0.0
 74
     0
 49
-3.0
 74
     0
  0
LTYPE
  5
AD
330
5
100
AcDbSymbolTableRecord
100
AcDbLinetypeTableRecord
  2
ACAD_ISO11W100
 70
     0
  3
ISO double-dash dot __ __ . __ __ . __ __ . __ 
 72
    65
 73
     6
 40
33.0
 49
12.0
 74
     0
 49
-3.0
 74
     0
 49
12.0
 74
     0
 49
-3.0
 74
     0
 49
0.0
 74
     0
 49
-3.0
 74
     0
  0
LTYPE
  5
AE
330
5
100
AcDbSymbolTableRecord
100
AcDbLinetypeTableRecord
  2
ACAD_ISO12W100
 70
     0
  3
ISO dash double-dot __ . . __ . . __ . . __ . .
 72
    65
 73
     6
 40
21.0
 49
12.0
 74
     0
 49
-3.0
 74
     0
 49
0.0
 74
     0
 49
-3.0
 74
     0
 49
0.0
 74
     0
 49
-3.0
 74
     0
  0
LTYPE
  5
AF
330
5
100
AcDbSymbolTableRecord
100
AcDbLinetypeTableRecord
  2
ACAD_ISO13W100
 70
     0
  3
ISO double-dash double-dot __ __ . . __ __ . . 
 72
    65
 73
     8
 40
36.0
 49
12.0
 74
     0
 49
-3.0
 74
     0
 49
12.0
 74
     0
 49
-3.0
 74
     0
 49
0.0
 74
     0
 49
-3.0
 74
     0
 49
0.0
 74
     0
 49
-3.0
 74
     0
  0
LTYPE
  5
B0
330
5
100
AcDbSymbolTableRecord
100
AcDbLinetypeTableRecord
  2
ACAD_ISO14W100
 70
     0
  3
ISO dash triple-dot __ . . . __ . . . __ . . . 
 72
    65
 73
     8
 40
24.0
 49
12.0
 74
     0
 49
-3.0
 74
     0
 49
0.0
 74
     0
 49
-3.0
 74
     0
 49
0.0
 74
     0
 49
-3.0
 74
     0
 49
0.0
 74
     0
 49
-3.0
 74
     0
  0
LTYPE
  5
B1
330
5
100
AcDbSymbolTableRecord
100
AcDbLinetypeTableRecord
  2
ACAD_ISO15W100
 70
     0
  3
ISO double-dash triple-dot __ __ . . . __ __ . 
 72
    65
 73
    10
 40
39.0
 49
12.0
 74
     0
 49
-3.0
 74
     0
 49
12.0
 74
     0
 49
-3.0
 74
     0
 49
0.0
 74
     0
 49
-3.0
 74
     0
 49
0.0
 74
     0
 49
-3.0
 74
     0
 49
0.0
 74
     0
 49
-3.0
 74
     0
  0
LTYPE
  5
B4
330
5
100
AcDbSymbolTableRecord
100
AcDbLinetypeTableRecord
  2
FENCELINE1
 70
     0
  3
Fenceline circle ----0-----0----0-----0----0---
 72
    65
 73
     4
 40
36.83
 49
6.349999999999999
 74
     0
 49
-2.54
 74
     4
 75
   133
340
B3
 46
2.54
 50
0.0
 44
-2.54
 45
0.0
 49
-2.54
 74
     0
 49
25.4
 74
     0
  0
LTYPE
  5
B5
330
5
100
AcDbSymbolTableRecord
100
AcDbLinetypeTableRecord
  2
FENCELINE2
 70
     0
  3
Fenceline square ----[]-----[]----[]-----[]----
 72
    65
 73
     4
 40
36.83
 49
6.349999999999999
 74
     0
 49
-2.54
 74
     4
 75
   132
340
B3
 46
2.54
 50
0.0
 44
-2.54
 45
0.0
 49
-2.54
 74
     0
 49
25.4
 74
     0
  0
LTYPE
  5
B6
330
5
100
AcDbSymbolTableRecord
100
AcDbLinetypeTableRecord
  2
TRACKS
 70
     0
  3
Tracks -|-|-|-|-|-|-|-|-|-|-|-|-|-|-|-|-|-|-|-|
 72
    65
 73
     2
 40
7.62
 49
3.81
 74
     4
 75
   130
340
B3
 46
6.349999999999999
 50
0.0
 44
0.0
 45
0.0
 49
3.81
 74
     0
  0
LTYPE
  5
B7
330
5
100
AcDbSymbolTableRecord
100
AcDbLinetypeTableRecord
  2
BATTING
 70
     0
  3
Batting SSSSSSSSSSSSSSSSSSSSSSSSSSSSSSSSSSSSSSS
 72
    65
 73
     4
 40
10.16254
 49
0.00254
 74
     0
 49
-2.54
 74
     4
 75
   134
340
B3
 46
2.54
 50
0.0
 44
-2.54
 45
0.0
 49
-5.08
 74
     4
 75
   134
340
B3
 46
2.54
 50
180.0
 44
2.54
 45
0.0
 49
-2.54
 74
     0
  0
LTYPE
  5
B8
330
5
100
AcDbSymbolTableRecord
100
AcDbLinetypeTableRecord
  2
HOT_WATER_SUPPLY
 70
     0
  3
Hot water supply ---- HW ---- HW ---- HW ----
 72
    65
 73
     3
 40
22.86
 49
12.7
 74
     0
 49
-5.08
 74
     2
 75
     0
340
60
 46
2.54
 50
0.0
 44
-2.54
 45
-1.27
  9
HW
 49
-5.08
 74
     0
  0
LTYPE
  5
B9
330
5
100
AcDbSymbolTableRecord
100
AcDbLinetypeTableRecord
  2
GAS_LINE
 70
     0
  3
Gas line ----GAS----GAS----GAS----GAS----GAS---
 72
    65
 73
     3
 40
24.13
 49
12.7
 74
     0
 49
-5.08
 74
     2
 75
     0
340
60
 46
2.54
 50
0.0
 44
-2.54
 45
-1.27
  9
GAS
 49
-6.349999999999999
 74
     0
  0
LTYPE
  5
BA
330
5
100
AcDbSymbolTableRecord
100
AcDbLinetypeTableRecord
  2
ZIGZAG
 70
     0
  3
Zig zag /\/\/\/\/\/\/\/\/\/\/\/\/\/\/\/\/\/\/\/
 72
    65
 73
     4
 40
20.32254
 49
0.00254
 74
     0
 49
-5.08
 74
     4
 75
   131
340
B3
 46
5.08
 50
0.0
 44
-5.08
 45
0.0
 49
-10.16
 74
     4
 75
   131
340
B3
 46
5.08
 50
180.0
 44
5.08
 45
0.0
 49
-5.08
 74
     0
  0
LTYPE
  5
5D6
330
5
100
AcDbSymbolTableRecord
100
AcDbLinetypeTableRecord
  2
AM_ISO02W050
 70
     0
  3
__ __ __ __ __ __ __ __ __ __ __ __ __ __ __
 72
    65
 73
     2
 40
7.5
 49
6.0
 74
     0
 49
-1.5
 74
     0
  0
LTYPE
  5
5D7
330
5
100
AcDbSymbolTableRecord
100
AcDbLinetypeTableRecord
  2
AM_ISO08W050
 70
     0
  3
____ . ____ . ____ . ____ . ____ . ____ . ____
 72
    65
 73
     4
 40
18.0
 49
12.0
 74
     0
 49
-1.5
 74
     0
 49
3.0
 74
     0
 49
-1.5
 74
     0
  0
LTYPE
  5
5D8
330
5
100
AcDbSymbolTableRecord
100
AcDbLinetypeTableRecord
  2
AM_ISO09W050
 70
     0
  3
_____ . . _____ . . _____ . . ____ .. ____
 72
    65
 73
     6
 40
22.5
 49
12.0
 74
     0
 49
-1.5
 74
     0
 49
3.0
 74
     0
 49
-1.5
 74
     0
 49
3.0
 74
     0
 49
-1.5
 74
     0
  0
LTYPE
  5
5D9
330
5
100
AcDbSymbolTableRecord
100
AcDbLinetypeTableRecord
  2
Amconstr
 70
     0
  3
_______________________
 72
    65
 73
     2
 40
9999.0
 49
9999.0
 74
     0
 49
0.0
 74
     0
  0
LTYPE
  5
5DA
330
5
100
AcDbSymbolTableRecord
100
AcDbLinetypeTableRecord
  2
AM_ISO08W050x2
 70
     0
  3
__ . __ . __ . __ . __ . __
 72
    65
 73
     4
 40
9.0
 49
6.0
 74
     0
 49
-0.75
 74
     0
 49
1.5
 74
     0
 49
-0.75
 74
     0
  0
LTYPE
  5
5DB
330
5
100
AcDbSymbolTableRecord
100
AcDbLinetypeTableRecord
  2
AM_ISO02W050x2
 70
     0
  3
 _ _ _ _ _ _ _ _ _ _ _ _
 72
    65
 73
     2
 40
3.75
 49
3.0
 74
     0
 49
-0.75
 74
     0
  0
LTYPE
  5
5DE
330
5
100
AcDbSymbolTableRecord
100
AcDbLinetypeTableRecord
  2
Amzigzag
 70
     0
  3
/\/-/\/-/\/-/\/-/\/-/\/
 72
    65
 73
     2
 40
11.0001
 49
0.0001
 74
     4
 75
   136
340
5DD
 46
0.04
 50
0.0
 44
0.0
 45
0.0
 49
-11.0
 74
     0
  0
LTYPE
  5
5E2
330
5
100
AcDbSymbolTableRecord
100
AcDbLinetypeTableRecord
  2
ACISOWELD
 70
     0
  3
_ _ _ _ _
 72
    65
 73
     2
 40
2.0
 49
2.0
 74
     0
 49
-1.0
 74
     0
  0
LTYPE
  5
5E3
330
5
100
AcDbSymbolTableRecord
100
AcDbLinetypeTableRecord
  2
ACISOTGB
 70
     0
  3
__ . . __ . .
 72
    65
 73
     6
 40
9.0
 49
4.0
 74
     0
 49
-1.0
 74
     0
 49
1.0
 74
     0
 49
-1.0
 74
     0
 49
1.0
 74
     0
 49
-1.0
 74
     0
  0
LTYPE
  5
5E4
330
5
100
AcDbSymbolTableRecord
100
AcDbLinetypeTableRecord
  2
ACISOTGL
 70
     0
  3
_ _ _ _ _
 72
    65
 73
     2
 40
3.0
 49
2.0
 74
     0
 49
-1.0
 74
     0
  0
ENDTAB
  0
TABLE
  2
LAYER
  5
2
330
0
100
AcDbSymbolTable
 70
     9
  0
LAYER
  5
5F
330
2
100
AcDbSymbolTableRecord
100
AcDbLayerTableRecord
  2
0
 70
     0
 62
     7
  6
Continuous
370
    -3
390
F
  0
LAYER
  5
C1
330
2
100
AcDbSymbolTableRecord
100
AcDbLayerTableRecord
  2
Bordo_0
 70
     0
 62
   179
  6
Continuous
370
    50
390
F
  0
LAYER
  5
C2
330
2
100
AcDbSymbolTableRecord
100
AcDbLayerTableRecord
  2
Bordo_2
 70
     0
 62
   179
  6
Continuous
370
    50
390
F
  0
LAYER
  5
C7
330
2
100
AcDbSymbolTableRecord
100
AcDbLayerTableRecord
  2
Centro(ISO)
 70
     0
 62
   150
  6
Continuous
370
    18
390
F
  0
LAYER
  5
DF
330
2
100
AcDbSymbolTableRecord
100
AcDbLayerTableRecord
  2
Geometria schizzo(ISO)
 70
     0
 62
   179
  6
Continuous
370
    35
390
F
  0
LAYER
  5
E6
330
2
100
AcDbSymbolTableRecord
100
AcDbLayerTableRecord
  2
Linea del centro(ISO)
 70
     0
 62
   150
  6
LONG_DASH_DOTTED
370
    18
390
F
  0
LAYER
  5
165
330
2
100
AcDbSymbolTableRecord
100
AcDbLayerTableRecord
  2
Simboli(ISO)
 70
     0
 62
   179
  6
Continuous
370
    18
390
F
  0
LAYER
  5
18A
330
2
100
AcDbSymbolTableRecord
100
AcDbLayerTableRecord
  2
Spigoli visibili(ISO)
 70
     0
 62
   179
  6
Continuous
370
    35
390
F
  0
LAYER
  5
18C
330
2
100
AcDbSymbolTableRecord
100
AcDbLayerTableRecord
  2
Tratteggio
 70
     0
 62
   179
  6
Continuous
370
     9
390
F
  0
ENDTAB
  0
TABLE
  2
STYLE
  5
3
330
0
100
AcDbSymbolTable
 70
    65
  0
STYLE
  5
60
330
3
100
AcDbSymbolTableRecord
100
AcDbTextStyleTableRecord
  2
Standard
 70
     0
 40
0.0
 41
1.0
 50
0.0
 71
     0
 42
0.2
  3
ARIAL.TTF
  4

1001
ACAD
1000
Arial
1071
      256
  0
STYLE
  5
65
330
3
100
AcDbSymbolTableRecord
100
AcDbTextStyleTableRecord
  2
Annotative
 70
     0
 40
0.0
 41
1.0
 50
0.0
 71
     0
 42
0.2
  3
txt
  4

1001
AcadAnnotative
1000
AnnotativeData
1002
{
1070
     1
1070
     1
1002
}
  0
STYLE
  5
B3
330
3
100
AcDbSymbolTableRecord
100
AcDbTextStyleTableRecord
  2

 70
     1
 40
0.0
 41
1.0
 50
0.0
 71
     0
 42
0.2
  3
ltypeshp.shx
  4

  0
STYLE
  5
18D
330
3
100
AcDbSymbolTableRecord
100
AcDbTextStyleTableRecord
  2
Bordo_1
 70
     0
 40
0.0
 41
1.0
 50
0.0
 71
     0
 42
0.2
  3
ARIAL.TTF
  4

1001
ACAD
1000
Arial
1071
      256
  0
STYLE
  5
18E
330
3
100
AcDbSymbolTableRecord
100
AcDbTextStyleTableRecord
  2
Corrente-ANSI
 70
     0
 40
0.0
 41
1.0
 50
0.0
 71
     0
 42
0.2
  3
ARIAL.TTF
  4

1001
ACAD
1000
Arial
1071
      256
  0
STYLE
  5
18F
330
3
100
AcDbSymbolTableRecord
100
AcDbTextStyleTableRecord
  2
Corrente-BSI
 70
     0
 40
0.0
 41
1.0
 50
0.0
 71
     0
 42
0.2
  3
ARIAL.TTF
  4

1001
ACAD
1000
Arial
1071
      256
  0
STYLE
  5
190
330
3
100
AcDbSymbolTableRecord
100
AcDbTextStyleTableRecord
  2
Corrente-DIN
 70
     0
 40
0.0
 41
1.0
 50
0.0
 71
     0
 42
0.2
  3
ARIAL.TTF
  4

1001
ACAD
1000
Arial
1071
      256
  0
STYLE
  5
191
330
3
100
AcDbSymbolTableRecord
100
AcDbTextStyleTableRecord
  2
Corrente-GB
 70
     0
 40
0.0
 41
1.0
 50
0.0
 71
     0
 42
0.2
  3
ARIAL.TTF
  4

1001
ACAD
1000
Arial
1071
      256
  0
STYLE
  5
192
330
3
100
AcDbSymbolTableRecord
100
AcDbTextStyleTableRecord
  2
Corrente-ISO
 70
     0
 40
0.0
 41
1.0
 50
0.0
 71
     0
 42
0.2
  3
ARIAL.TTF
  4

1001
ACAD
1000
Arial
1071
      256
  0
STYLE
  5
193
330
3
100
AcDbSymbolTableRecord
100
AcDbTextStyleTableRecord
  2
Corrente-JIS
 70
     0
 40
0.0
 41
1.0
 50
0.0
 71
     0
 42
0.2
  3
ARIAL.TTF
  4

1001
ACAD
1000
Arial
1071
      256
  0
STYLE
  5
194
330
3
100
AcDbSymbolTableRecord
100
AcDbTextStyleTableRecord
  2
DEFAULT-ANSI
 70
     0
 40
0.0
 41
1.0
 50
0.0
 71
     0
 42
0.2
  3
ARIAL.TTF
  4

1001
ACAD
1000
Arial
1071
      256
  0
STYLE
  5
195
330
3
100
AcDbSymbolTableRecord
100
AcDbTextStyleTableRecord
  2
DEFAULT-ANSI~0
 70
     0
 40
0.0
 41
1.0
 50
0.0
 71
     0
 42
0.2
  3
ARIAL.TTF
  4

1001
ACAD
1000
Arial
1071
      256
  0
STYLE
  5
196
330
3
100
AcDbSymbolTableRecord
100
AcDbTextStyleTableRecord
  2
DEFAULT-ANSIDa layer
 70
     0
 40
0.0
 41
1.0
 50
0.0
 71
     0
 42
0.2
  3
ARIAL.TTF
  4

1001
ACAD
1000
Arial
1071
      256
  0
STYLE
  5
197
330
3
100
AcDbSymbolTableRecord
100
AcDbTextStyleTableRecord
  2
DEFAULT-ANSITesto caratteri grandi
 70
     0
 40
0.0
 41
1.0
 50
0.0
 71
     0
 42
0.2
  3
ARIAL.TTF
  4

1001
ACAD
1000
Arial
1071
      256
  0
STYLE
  5
198
330
3
100
AcDbSymbolTableRecord
100
AcDbTextStyleTableRecord
  2
DEFAULT-BSI
 70
     0
 40
0.0
 41
1.0
 50
0.0
 71
     0
 42
0.2
  3
ARIAL.TTF
  4

1001
ACAD
1000
Arial
1071
      256
  0
STYLE
  5
199
330
3
100
AcDbSymbolTableRecord
100
AcDbTextStyleTableRecord
  2
DEFAULT-BSIDa layer
 70
     0
 40
0.0
 41
1.0
 50
0.0
 71
     0
 42
0.2
  3
ARIAL.TTF
  4

1001
ACAD
1000
Arial
1071
      256
  0
STYLE
  5
19A
330
3
100
AcDbSymbolTableRecord
100
AcDbTextStyleTableRecord
  2
DEFAULT-BSITesto caratteri grandi
 70
     0
 40
0.0
 41
1.0
 50
0.0
 71
     0
 42
0.2
  3
ARIAL.TTF
  4

1001
ACAD
1000
Arial
1071
      256
  0
STYLE
  5
19B
330
3
100
AcDbSymbolTableRecord
100
AcDbTextStyleTableRecord
  2
DEFAULT-DIN
 70
     0
 40
0.0
 41
1.0
 50
0.0
 71
     0
 42
0.2
  3
ARIAL.TTF
  4

1001
ACAD
1000
Arial
1071
      256
  0
STYLE
  5
19C
330
3
100
AcDbSymbolTableRecord
100
AcDbTextStyleTableRecord
  2
DEFAULT-DINDa layer
 70
     0
 40
0.0
 41
1.0
 50
0.0
 71
     0
 42
0.2
  3
ARIAL.TTF
  4

1001
ACAD
1000
Arial
1071
      256
  0
STYLE
  5
19D
330
3
100
AcDbSymbolTableRecord
100
AcDbTextStyleTableRecord
  2
DEFAULT-DINTesto caratteri grandi
 70
     0
 40
0.0
 41
1.0
 50
0.0
 71
     0
 42
0.2
  3
ARIAL.TTF
  4

1001
ACAD
1000
Arial
1071
      256
  0
STYLE
  5
19E
330
3
100
AcDbSymbolTableRecord
100
AcDbTextStyleTableRecord
  2
DEFAULT-GB
 70
     0
 40
0.0
 41
1.0
 50
0.0
 71
     0
 42
0.2
  3
ARIAL.TTF
  4

1001
ACAD
1000
Arial
1071
      256
  0
STYLE
  5
19F
330
3
100
AcDbSymbolTableRecord
100
AcDbTextStyleTableRecord
  2
DEFAULT-GBDa layer
 70
     0
 40
0.0
 41
1.0
 50
0.0
 71
     0
 42
0.2
  3
ARIAL.TTF
  4

1001
ACAD
1000
Arial
1071
      256
  0
STYLE
  5
1A0
330
3
100
AcDbSymbolTableRecord
100
AcDbTextStyleTableRecord
  2
DEFAULT-GBTesto caratteri grandi
 70
     0
 40
0.0
 41
1.0
 50
0.0
 71
     0
 42
0.2
  3
ARIAL.TTF
  4

1001
ACAD
1000
Arial
1071
      256
  0
STYLE
  5
1A1
330
3
100
AcDbSymbolTableRecord
100
AcDbTextStyleTableRecord
  2
DEFAULT-ISO
 70
     0
 40
0.0
 41
1.0
 50
0.0
 71
     0
 42
0.2
  3
ARIAL.TTF
  4

1001
ACAD
1000
Arial
1071
      256
  0
STYLE
  5
1A2
330
3
100
AcDbSymbolTableRecord
100
AcDbTextStyleTableRecord
  2
DEFAULT-ISO~0
 70
     0
 40
0.0
 41
1.0
 50
0.0
 71
     0
 42
0.2
  3
ARIAL.TTF
  4

1001
ACAD
1000
Arial
1071
      256
  0
STYLE
  5
1A3
330
3
100
AcDbSymbolTableRecord
100
AcDbTextStyleTableRecord
  2
DEFAULT-ISODa layer
 70
     0
 40
0.0
 41
1.0
 50
0.0
 71
     0
 42
0.2
  3
ARIAL.TTF
  4

1001
ACAD
1000
Arial
1071
      256
  0
STYLE
  5
1A4
330
3
100
AcDbSymbolTableRecord
100
AcDbTextStyleTableRecord
  2
DEFAULT-ISOTesto caratteri grandi
 70
     0
 40
0.0
 41
1.0
 50
0.0
 71
     0
 42
0.2
  3
ARIAL.TTF
  4

1001
ACAD
1000
Arial
1071
      256
  0
STYLE
  5
1A5
330
3
100
AcDbSymbolTableRecord
100
AcDbTextStyleTableRecord
  2
DEFAULT-JIS
 70
     0
 40
0.0
 41
1.0
 50
0.0
 71
     0
 42
0.2
  3
ARIAL.TTF
  4

1001
ACAD
1000
Arial
1071
      256
  0
STYLE
  5
1A6
330
3
100
AcDbSymbolTableRecord
100
AcDbTextStyleTableRecord
  2
DEFAULT-JIS~0
 70
     0
 40
0.0
 41
1.0
 50
0.0
 71
     0
 42
0.2
  3
ARIAL.TTF
  4

1001
ACAD
1000
Arial
1071
      256
  0
STYLE
  5
1A7
330
3
100
AcDbSymbolTableRecord
100
AcDbTextStyleTableRecord
  2
DEFAULT-JISDa layer
 70
     0
 40
0.0
 41
1.0
 50
0.0
 71
     0
 42
0.2
  3
ARIAL.TTF
  4

1001
ACAD
1000
Arial
1071
      256
  0
STYLE
  5
1A8
330
3
100
AcDbSymbolTableRecord
100
AcDbTextStyleTableRecord
  2
DEFAULT-JISTesto caratteri grandi
 70
     0
 40
0.0
 41
1.0
 50
0.0
 71
     0
 42
0.2
  3
ARIAL.TTF
  4

1001
ACAD
1000
Arial
1071
      256
  0
STYLE
  5
1A9
330
3
100
AcDbSymbolTableRecord
100
AcDbTextStyleTableRecord
  2
ISOCADMEC_1-1
 70
     0
 40
0.0
 41
1.064000010490417
 50
0.0
 71
     0
 42
0.2
  3
ARIAL.TTF
  4

1001
ACAD
1000
Arial
1071
      256
  0
STYLE
  5
1AA
330
3
100
AcDbSymbolTableRecord
100
AcDbTextStyleTableRecord
  2
MM-ANSI
 70
     0
 40
0.0
 41
1.0
 50
0.0
 71
     0
 42
0.2
  3
ARIAL.TTF
  4

1001
ACAD
1000
Arial
1071
      256
  0
STYLE
  5
1AB
330
3
100
AcDbSymbolTableRecord
100
AcDbTextStyleTableRecord
  2
STANDARDAM_ISO
 70
     0
 40
0.0
 41
1.064000010490417
 50
0.0
 71
     0
 42
0.2
  3
ISOCP.shx
  4

  0
STYLE
  5
1AC
330
3
100
AcDbSymbolTableRecord
100
AcDbTextStyleTableRecord
  2
STANDARDAM_ISO$3
 70
     0
 40
0.0
 41
1.064000010490417
 50
0.0
 71
     0
 42
0.2
  3
ISOCP.shx
  4

  0
STYLE
  5
1AD
330
3
100
AcDbSymbolTableRecord
100
AcDbTextStyleTableRecord
  2
STANDARDAM_ISO$4
 70
     0
 40
0.0
 41
1.064000010490417
 50
0.0
 71
     0
 42
0.2
  3
ISOCP.shx
  4

  0
STYLE
  5
1AE
330
3
100
AcDbSymbolTableRecord
100
AcDbTextStyleTableRecord
  2
STANDARDAM_ISO$6
 70
     0
 40
0.0
 41
1.064000010490417
 50
0.0
 71
     0
 42
0.2
  3
ISOCP.shx
  4

  0
STYLE
  5
1AF
330
3
100
AcDbSymbolTableRecord
100
AcDbTextStyleTableRecord
  2
STANDARDAM_ISO$7
 70
     0
 40
0.0
 41
1.064000010490417
 50
0.0
 71
     0
 42
0.2
  3
ISOCP.shx
  4

  0
STYLE
  5
1B0
330
3
100
AcDbSymbolTableRecord
100
AcDbTextStyleTableRecord
  2
STANDARDAM_ISO$SF
 70
     0
 40
0.0
 41
1.064000010490417
 50
0.0
 71
     0
 42
0.2
  3
ISOCP.shx
  4

  0
STYLE
  5
1B1
330
3
100
AcDbSymbolTableRecord
100
AcDbTextStyleTableRecord
  2
STANDARDAM_ISO$SH
 70
     0
 40
0.0
 41
1.064000010490417
 50
0.0
 71
     0
 42
0.2
  3
ISOCP.shx
  4

  0
STYLE
  5
1B2
330
3
100
AcDbSymbolTableRecord
100
AcDbTextStyleTableRecord
  2
STANDARDGEN-ISO
 70
     0
 40
0.0
 41
1.064000010490417
 50
0.0
 71
     0
 42
0.2
  3
ISOCP.shx
  4

  0
STYLE
  5
1B3
330
3
100
AcDbSymbolTableRecord
100
AcDbTextStyleTableRecord
  2
STANDARDGEN-ISO-AXE-F
 70
     0
 40
0.0
 41
1.064000010490417
 50
0.0
 71
     0
 42
0.2
  3
ISOCP.shx
  4

  0
STYLE
  5
1B4
330
3
100
AcDbSymbolTableRecord
100
AcDbTextStyleTableRecord
  2
STANDARDGEN-ISO-AXE-H
 70
     0
 40
0.0
 41
1.064000010490417
 50
0.0
 71
     0
 42
0.2
  3
ISOCP.shx
  4

  0
STYLE
  5
1B5
330
3
100
AcDbSymbolTableRecord
100
AcDbTextStyleTableRecord
  2
STANDARDGEN-ISO-POS
 70
     0
 40
0.0
 41
1.064000010490417
 50
0.0
 71
     0
 42
0.2
  3
ISOCP.shx
  4

  0
STYLE
  5
1B6
330
3
100
AcDbSymbolTableRecord
100
AcDbTextStyleTableRecord
  2
STANDARDGEN-ISO$3
 70
     0
 40
0.0
 41
1.064000010490417
 50
0.0
 71
     0
 42
0.2
  3
ISOCP.shx
  4

  0
STYLE
  5
1B7
330
3
100
AcDbSymbolTableRecord
100
AcDbTextStyleTableRecord
  2
STANDARDGEN-ISO$4
 70
     0
 40
0.0
 41
1.064000010490417
 50
0.0
 71
     0
 42
0.2
  3
ISOCP.shx
  4

  0
STYLE
  5
1B8
330
3
100
AcDbSymbolTableRecord
100
AcDbTextStyleTableRecord
  2
STANDARDGEN-ISO$6
 70
     0
 40
0.0
 41
1.064000010490417
 50
0.0
 71
     0
 42
0.2
  3
ISOCP.shx
  4

  0
STYLE
  5
1B9
330
3
100
AcDbSymbolTableRecord
100
AcDbTextStyleTableRecord
  2
STANDARDISO-25
 70
     0
 40
0.0
 41
1.064000010490417
 50
0.0
 71
     0
 42
0.2
  3
ISOCP.shx
  4

  0
STYLE
  5
1BA
330
3
100
AcDbSymbolTableRecord
100
AcDbTextStyleTableRecord
  2
STANDARDISO-35
 70
     0
 40
0.0
 41
1.064000010490417
 50
0.0
 71
     0
 42
0.2
  3
ISOCP.shx
  4

  0
STYLE
  5
1BB
330
3
100
AcDbSymbolTableRecord
100
AcDbTextStyleTableRecord
  2
STANDARDISO-5
 70
     0
 40
0.0
 41
1.064000010490417
 50
0.0
 71
     0
 42
0.2
  3
ISOCP.shx
  4

  0
STYLE
  5
1BC
330
3
100
AcDbSymbolTableRecord
100
AcDbTextStyleTableRecord
  2
STANDARDISO-7
 70
     0
 40
0.0
 41
1.064000010490417
 50
0.0
 71
     0
 42
0.2
  3
ISOCP.shx
  4

  0
STYLE
  5
1BD
330
3
100
AcDbSymbolTableRecord
100
AcDbTextStyleTableRecord
  2
STANDARDISO1
 70
     0
 40
0.0
 41
1.064000010490417
 50
0.0
 71
     0
 42
0.2
  3
ISOCP.shx
  4

  0
STYLE
  5
1BE
330
3
100
AcDbSymbolTableRecord
100
AcDbTextStyleTableRecord
  2
STANDARDISO1-4
 70
     0
 40
0.0
 41
1.064000010490417
 50
0.0
 71
     0
 42
0.2
  3
ISOCP.shx
  4

  0
STYLE
  5
1BF
330
3
100
AcDbSymbolTableRecord
100
AcDbTextStyleTableRecord
  2
STANDARDISO2
 70
     0
 40
0.0
 41
1.064000010490417
 50
0.0
 71
     0
 42
0.2
  3
ISOCP.shx
  4

  0
STYLE
  5
1C0
330
3
100
AcDbSymbolTableRecord
100
AcDbTextStyleTableRecord
  2
STANDARDSTANDARD
 70
     0
 40
0.0
 41
1.064000010490417
 50
0.0
 71
     0
 42
0.2
  3
ISOCP.shx
  4

  0
STYLE
  5
1C1
330
3
100
AcDbSymbolTableRecord
100
AcDbTextStyleTableRecord
  2
X . XXX
 70
     0
 40
0.0
 41
1.0
 50
0.0
 71
     0
 42
0.2
  3
ARIAL.TTF
  4

1001
ACAD
1000
Arial
1071
      256
  0
STYLE
  5
1C2
330
3
100
AcDbSymbolTableRecord
100
AcDbTextStyleTableRecord
  2
X.X spazio grande e testo
 70
     0
 40
0.0
 41
1.0
 50
0.0
 71
     0
 42
0.2
  3
ARIAL.TTF
  4

1001
ACAD
1000
Arial
1071
      256
  0
STYLE
  5
27E
330
3
100
AcDbSymbolTableRecord
100
AcDbTextStyleTableRecord
  2
Stile testo15
 70
     0
 40
0.0
 41
1.0
 50
0.0
 71
     0
 42
0.2
  3
ARIAL.TTF
  4

1001
ACAD
1000
Arial
1071
      256
  0
STYLE
  5
283
330
3
100
AcDbSymbolTableRecord
100
AcDbTextStyleTableRecord
  2
Stile testo116
 70
     0
 40
0.0
 41
0.899999976158142
 50
0.0
 71
     0
 42
0.2
  3
ARIAL.TTF
  4

1001
ACAD
1000
Arial
1071
      256
  0
STYLE
  5
285
330
3
100
AcDbSymbolTableRecord
100
AcDbTextStyleTableRecord
  2
Stile testo115
 70
     0
 40
0.0
 41
0.899999976158142
 50
0.0
 71
     0
 42
0.2
  3
ARIAL.TTF
  4

1001
ACAD
1000
Arial
1071
      256
  0
STYLE
  5
421
330
3
100
AcDbSymbolTableRecord
100
AcDbTextStyleTableRecord
  2
Stile testo6
 70
     0
 40
0.0
 41
1.0
 50
0.0
 71
     0
 42
0.2
  3
ARIAL.TTF
  4

1001
ACAD
1000
Arial
1071
      256
  0
STYLE
  5
424
330
3
100
AcDbSymbolTableRecord
100
AcDbTextStyleTableRecord
  2
Stile testo135
 70
     0
 40
0.0
 41
0.75
 50
0.0
 71
     0
 42
0.2
  3

  4

1001
ACAD
1000
Arial Black
1071
      256
  0
STYLE
  5
5DD
330
3
100
AcDbSymbolTableRecord
100
AcDbTextStyleTableRecord
  2

 70
     1
 40
0.0
 41
1.0
 50
0.0
 71
     0
 42
0.2
  3
genltshp.shx
  4

  0
STYLE
  5
5E0
330
3
100
AcDbSymbolTableRecord
100
AcDbTextStyleTableRecord
  2
ACISOTS
 70
     0
 40
1.0
 41
1.0
 50
0.0
 71
     0
 42
0.2
  3
isocp.shx
  4

  0
STYLE
  5
5E1
330
3
100
AcDbSymbolTableRecord
100
AcDbTextStyleTableRecord
  2
ACISOGDT
 70
     0
 40
0.0
 41
1.0
 50
0.0
 71
     0
 42
0.2
  3
amgdt.shx
  4

  0
ENDTAB
  0
TABLE
  2
VIEW
  5
6
330
0
100
AcDbSymbolTable
 70
     0
  0
ENDTAB
  0
TABLE
  2
UCS
  5
7
330
0
100
AcDbSymbolTable
 70
     0
  0
ENDTAB
  0
TABLE
  2
APPID
  5
9
330
0
100
AcDbSymbolTable
 70
    13
  0
APPID
  5
61
330
9
100
AcDbSymbolTableRecord
100
AcDbRegAppTableRecord
  2
ACAD
 70
     0
  0
APPID
  5
69
330
9
100
AcDbSymbolTableRecord
100
AcDbRegAppTableRecord
  2
AcadAnnotative
 70
     0
  0
APPID
  5
281
330
9
100
AcDbSymbolTableRecord
100
AcDbRegAppTableRecord
  2
AcadAnnoPO
 70
     0
  0
APPID
  5
52C
330
9
100
AcDbSymbolTableRecord
100
AcDbRegAppTableRecord
  2
ACAD_MLEADERVER
 70
     0
  0
APPID
  5
560
330
9
100
AcDbSymbolTableRecord
100
AcDbRegAppTableRecord
  2
MCAD_NO_VIS
 70
     0
  0
APPID
  5
561
330
9
100
AcDbSymbolTableRecord
100
AcDbRegAppTableRecord
  2
ACAD_TEMP_GRAPHIC
 70
     0
  0
APPID
  5
58E
330
9
100
AcDbSymbolTableRecord
100
AcDbRegAppTableRecord
  2
AD_DRAW
 70
     0
  0
APPID
  5
591
330
9
100
AcDbSymbolTableRecord
100
AcDbRegAppTableRecord
  2
ACATTRIBSERVICES
 70
     0
  0
APPID
  5
5B5
330
9
100
AcDbSymbolTableRecord
100
AcDbRegAppTableRecord
  2
DESIGNERASSEMBLIES
 70
     0
  0
APPID
  5
5BB
330
9
100
AcDbSymbolTableRecord
100
AcDbRegAppTableRecord
  2
ACADM_DIM_EDIT
 70
     0
  0
APPID
  5
5BC
330
9
100
AcDbSymbolTableRecord
100
AcDbRegAppTableRecord
  2
AMDT_DM_ADJ
 70
     0
  0
APPID
  5
5D2
330
9
100
AcDbSymbolTableRecord
100
AcDbRegAppTableRecord
  2
ACAD_DSTYLE_DIMBREAK
 70
     0
  0
APPID
  5
5D3
330
9
100
AcDbSymbolTableRecord
100
AcDbRegAppTableRecord
  2
ACAD_DSTYLE_DIMJAG
 70
     0
  0
ENDTAB
  0
TABLE
  2
DIMSTYLE
  5
A
330
0
100
AcDbSymbolTable
 70
   100
100
AcDbDimStyleTable
 71
     0
  0
DIMSTYLE
105
63
330
A
100
AcDbSymbolTableRecord
100
AcDbDimStyleTableRecord
  2
Standard
 70
     0
 41
2.5
340
60
342
1F0
  0
DIMSTYLE
105
64
330
A
100
AcDbSymbolTableRecord
100
AcDbDimStyleTableRecord
  2
Annotative
 70
     0
340
60
1001
AcadAnnotative
1000
AnnotativeData
1002
{
1070
     1
1070
     1
1002
}
  0
DIMSTYLE
105
1C3
330
A
100
AcDbSymbolTableRecord
100
AcDbDimStyleTableRecord
  2
BSI - Metodo 2
 70
     0
 41
2.5
 42
0.5
 43
5.999999999999999
 44
2.999999999999999
 45
0.00000001
 46
10.0
 73
     0
 77
     1
 78
     8
 79
     2
140
3.5
143
0.03937
147
0.75
171
     3
172
     1
176
   250
177
   250
178
   250
179
     2
271
     2
272
     2
274
     3
278
    44
285
     8
340
1A2
371
    25
372
    25
  0
DIMSTYLE
105
1C4
330
A
100
AcDbSymbolTableRecord
100
AcDbDimStyleTableRecord
  2
BSI - Metodo 2$7
 70
     0
 41
2.5
 42
0.5
 43
5.999999999999999
 44
2.999999999999999
 45
0.00000001
 46
10.0
 73
     0
 77
     1
 78
     8
 79
     2
140
3.5
143
0.03937
147
0.75
171
     3
172
     1
176
   179
177
   250
178
   250
179
     2
271
     2
272
     2
274
     3
278
    44
285
     8
340
1A2
371
    25
372
    25
  0
DIMSTYLE
105
1C5
330
A
100
AcDbSymbolTableRecord
100
AcDbDimStyleTableRecord
  2
BSI - Metodo 2Testo caratteri grandi
 70
     0
 41
5.0
 42
0.5
 43
5.999999999999999
 44
2.999999999999999
 45
0.00000001
 46
10.0
 73
     0
 77
     1
 78
     8
 79
     2
140
5.25
143
0.03937
146
0.6666666666666666
147
0.75
171
     3
172
     1
176
   250
177
   250
178
   179
179
     2
271
     2
272
     2
274
     3
278
    44
285
     8
340
19A
371
    25
372
    25
  0
DIMSTYLE
105
1C6
330
A
100
AcDbSymbolTableRecord
100
AcDbDimStyleTableRecord
  2
BSI - Metodo 2Testo caratteri grandi$7
 70
     0
 41
5.0
 42
0.5
 43
5.999999999999999
 44
2.999999999999999
 45
0.00000001
 46
10.0
 73
     0
 77
     1
 78
     8
 79
     2
140
5.25
143
0.03937
146
0.6666666666666666
147
0.75
171
     3
172
     1
176
   179
177
   250
178
   179
179
     2
271
     2
272
     2
274
     3
278
    44
285
     8
340
19A
371
    25
372
    25
  0
DIMSTYLE
105
1D5
330
A
100
AcDbSymbolTableRecord
100
AcDbDimStyleTableRecord
  2
DEFAULT-GB
 70
     0
 41
4.0
 42
0.0
 43
5.999999999999999
 44
5.0
 45
0.00000001
 46
10.0
 73
     0
 74
     0
 77
     1
 78
     8
 79
     2
140
3.5
143
0.03937
147
0.75
171
     3
172
     1
176
   250
177
   250
178
   250
179
     3
271
     2
272
     2
274
     3
275
     1
285
     8
340
1A2
341
1C7
342
1C7
371
    25
372
    25
  0
DIMSTYLE
105
1D6
330
A
100
AcDbSymbolTableRecord
100
AcDbDimStyleTableRecord
  2
DEFAULT-GB$7
 70
     0
 41
4.0
 42
0.0
 43
5.999999999999999
 44
5.0
 45
0.00000001
 46
10.0
 73
     0
 74
     0
 77
     1
 78
     8
 79
     2
140
3.5
143
0.03937
147
0.75
171
     3
172
     1
176
   179
177
   250
178
   250
179
     3
271
     2
272
     2
274
     3
275
     1
285
     8
340
1A2
341
1C7
342
1C7
371
    25
372
    25
  0
DIMSTYLE
105
1D7
330
A
100
AcDbSymbolTableRecord
100
AcDbDimStyleTableRecord
  2
DEFAULT-GBTesto caratteri grandi
 70
     0
 41
8.0
 42
0.0
 43
5.999999999999999
 44
5.0
 45
0.00000001
 46
10.0
 73
     0
 74
     0
 77
     1
 78
     8
 79
     2
140
5.25
143
0.03937
146
0.6666666666666666
147
0.75
171
     3
172
     1
176
   250
177
   250
178
   179
179
     3
271
     2
272
     2
274
     3
275
     1
285
     8
340
1A0
341
1C7
342
1C7
371
    25
372
    25
  0
DIMSTYLE
105
1D8
330
A
100
AcDbSymbolTableRecord
100
AcDbDimStyleTableRecord
  2
DEFAULT-GBTesto caratteri grandi$7
 70
     0
 41
8.0
 42
0.0
 43
5.999999999999999
 44
5.0
 45
0.00000001
 46
10.0
 73
     0
 74
     0
 77
     1
 78
     8
 79
     2
140
5.25
143
0.03937
146
0.6666666666666666
147
0.75
171
     3
172
     1
176
   179
177
   250
178
   179
179
     3
271
     2
272
     2
274
     3
275
     1
285
     8
340
1A0
341
1C7
342
1C7
371
    25
372
    25
  0
DIMSTYLE
105
1D9
330
A
100
AcDbSymbolTableRecord
100
AcDbDimStyleTableRecord
  2
DEFAULT-JIS - Metodo 2
 70
     0
 41
2.5
 42
0.0
 43
5.999999999999999
 44
3.174999999999999
 45
0.00000001
 46
10.0
 77
     1
140
4.5
143
0.03937
147
0.8
171
     3
172
     1
176
   250
177
   250
178
   250
271
     2
272
     2
274
     3
340
1A6
341
1DA
342
1DA
371
    25
372
    25
  0
DIMSTYLE
105
1E0
330
A
100
AcDbSymbolTableRecord
100
AcDbDimStyleTableRecord
  2
DEFAULT-JIS - Metodo 2$7
 70
     0
 41
2.5
 42
0.0
 43
5.999999999999999
 44
3.174999999999999
 45
0.00000001
 46
10.0
 77
     1
140
4.5
143
0.03937
147
0.8
171
     3
172
     1
176
   179
177
   250
178
   250
271
     2
272
     2
274
     3
340
1A6
341
1DA
342
1DA
371
    25
372
    25
  0
DIMSTYLE
105
1E1
330
A
100
AcDbSymbolTableRecord
100
AcDbDimStyleTableRecord
  2
DEFAULT-JIS - Metodo 2Testo caratteri grandi
 70
     0
 41
5.0
 42
0.0
 43
5.999999999999999
 44
3.174999999999999
 45
0.00000001
 46
10.0
 77
     1
140
6.749999523162841
143
0.03937
146
0.666666713761698
147
0.8
171
     3
172
     1
176
   250
177
   250
178
   179
271
     2
272
     2
274
     3
340
1A8
341
1DA
342
1DA
371
    25
372
    25
  0
DIMSTYLE
105
1E2
330
A
100
AcDbSymbolTableRecord
100
AcDbDimStyleTableRecord
  2
DEFAULT-JIS - Metodo 2Testo caratteri grandi$7
 70
     0
 41
5.0
 42
0.0
 43
5.999999999999999
 44
3.174999999999999
 45
0.00000001
 46
10.0
 77
     1
140
6.749999523162841
143
0.03937
146
0.666666713761698
147
0.8
171
     3
172
     1
176
   179
177
   250
178
   179
271
     2
272
     2
274
     3
340
1A8
341
1DA
342
1DA
371
    25
372
    25
  0
DIMSTYLE
105
1E3
330
A
100
AcDbSymbolTableRecord
100
AcDbDimStyleTableRecord
  2
DIN - Altro
 70
     0
 41
2.5
 42
0.0
 43
5.999999999999999
 44
3.174999999999999
 45
0.00000001
 46
10.0
 77
     1
140
3.5
143
0.03937
147
0.8
171
     3
172
     1
176
   250
177
   250
178
   250
271
     2
272
     2
274
     3
278
    44
340
1A2
371
    25
372
    25
  0
DIMSTYLE
105
1E4
330
A
100
AcDbSymbolTableRecord
100
AcDbDimStyleTableRecord
  2
DIN - Altro$7
 70
     0
 41
2.5
 42
0.0
 43
5.999999999999999
 44
3.174999999999999
 45
0.00000001
 46
10.0
 77
     1
140
3.5
143
0.03937
147
0.8
171
     3
172
     1
176
   179
177
   250
178
   250
271
     2
272
     2
274
     3
278
    44
340
1A2
371
    25
372
    25
  0
DIMSTYLE
105
1E5
330
A
100
AcDbSymbolTableRecord
100
AcDbDimStyleTableRecord
  2
DIN - AltroTesto caratteri grandi
 70
     0
 41
5.0
 42
0.0
 43
5.999999999999999
 44
3.174999999999999
 45
0.00000001
 46
10.0
 77
     1
140
5.25
143
0.03937
146
0.6666666666666666
147
0.8
171
     3
172
     1
176
   250
177
   250
178
   179
271
     2
272
     2
274
     3
278
    44
340
19D
371
    25
372
    25
  0
DIMSTYLE
105
1E6
330
A
100
AcDbSymbolTableRecord
100
AcDbDimStyleTableRecord
  2
DIN - AltroTesto caratteri grandi$7
 70
     0
 41
5.0
 42
0.0
 43
5.999999999999999
 44
3.174999999999999
 45
0.00000001
 46
10.0
 77
     1
140
5.25
143
0.03937
146
0.6666666666666666
147
0.8
171
     3
172
     1
176
   179
177
   250
178
   179
271
     2
272
     2
274
     3
278
    44
340
19D
371
    25
372
    25
  0
DIMSTYLE
105
1E7
330
A
100
AcDbSymbolTableRecord
100
AcDbDimStyleTableRecord
  2
MAURO
 70
     0
 41
2.5
 42
1.0
 43
10.0
 44
1.0
 45
0.00000001
 46
10.0
 73
     0
 77
     1
 78
     8
 79
     2
140
3.5
143
0.03937
146
0.7142857142857144
147
0.762
171
     3
172
     1
176
    96
177
    96
178
     7
179
     3
271
     3
272
     3
274
     3
284
     8
286
     8
340
192
371
    25
372
    25
  0
DIMSTYLE
105
1E8
330
A
100
AcDbSymbolTableRecord
100
AcDbDimStyleTableRecord
  2
MAURO$7
 70
     0
 41
2.5
 42
1.0
 43
10.0
 44
1.0
 45
0.00000001
 46
10.0
 73
     0
 77
     1
 78
     8
 79
     2
140
3.5
143
0.03937
146
0.7142857142857144
147
0.762
171
     3
172
     1
176
   179
177
    96
178
     7
179
     3
271
     3
272
     3
274
     3
284
     8
286
     8
340
192
371
    15
372
    25
  0
DIMSTYLE
105
1E9
330
A
100
AcDbSymbolTableRecord
100
AcDbDimStyleTableRecord
  2
MAUROTesto caratteri grandi
 70
     0
 41
5.0
 42
1.0
 43
10.0
 44
1.0
 45
0.00000001
 46
10.0
 73
     0
 77
     1
 78
     8
 79
     2
140
5.25
143
0.03937
146
0.4761904761904762
147
0.762
171
     3
172
     1
176
    96
177
    96
178
   179
179
     3
271
     3
272
     3
274
     3
284
     8
286
     8
340
1A4
371
    25
372
    25
  0
DIMSTYLE
105
1EA
330
A
100
AcDbSymbolTableRecord
100
AcDbDimStyleTableRecord
  2
MAUROTesto caratteri grandi$7
 70
     0
 41
5.0
 42
1.0
 43
10.0
 44
1.0
 45
0.00000001
 46
10.0
 73
     0
 77
     1
 78
     8
 79
     2
140
5.25
143
0.03937
146
0.4761904761904762
147
0.762
171
     3
172
     1
176
   179
177
    96
178
   179
179
     3
271
     3
272
     3
274
     3
284
     8
286
     8
340
1A4
371
    15
372
    25
  0
DIMSTYLE
105
1EB
330
A
100
AcDbSymbolTableRecord
100
AcDbDimStyleTableRecord
  2
X.XX pollici [mm]
 70
     0
  4
 mm
 41
2.5
 42
2.387599999999999
 43
6.349999999999999
 44
3.174999999999999
 45
0.00000001
 46
10.0
 73
     0
140
3.04800009727478
144
0.0393700787401575
147
1.600199999999999
170
     1
176
     7
177
     7
178
     7
179
     1
271
     3
272
     2
340
1C1
371
    25
372
    25
  0
DIMSTYLE
105
1EC
330
A
100
AcDbSymbolTableRecord
100
AcDbDimStyleTableRecord
  2
X.XX pollici [mm]$7
 70
     0
  4
 mm
 41
2.5
 42
2.387599999999999
 43
6.349999999999999
 44
3.174999999999999
 45
0.00000001
 46
10.0
 73
     0
140
3.04800009727478
144
0.0393700787401575
147
1.600199999999999
170
     1
176
   179
177
     7
178
     7
179
     1
271
     3
272
     2
340
1C1
371
    25
372
    25
  0
DIMSTYLE
105
1ED
330
A
100
AcDbSymbolTableRecord
100
AcDbDimStyleTableRecord
  2
X.XX pollici [mm]Testo caratteri grandi
 70
     0
  4
 mm
 41
5.0
 42
2.387599999999999
 43
6.349999999999999
 44
3.174999999999999
 45
0.00000001
 46
10.0
 73
     0
140
4.57200002670288
144
0.0393700787401575
146
0.6666666840491819
147
1.600199999999999
170
     1
176
     7
177
     7
178
   179
179
     1
271
     3
272
     2
340
197
371
    25
372
    25
  0
DIMSTYLE
105
1EE
330
A
100
AcDbSymbolTableRecord
100
AcDbDimStyleTableRecord
  2
X.XX pollici [mm]Testo caratteri grandi$7
 70
     0
  4
 mm
 41
5.0
 42
2.387599999999999
 43
6.349999999999999
 44
3.174999999999999
 45
0.00000001
 46
10.0
 73
     0
140
4.57200002670288
144
0.0393700787401575
146
0.6666666840491819
147
1.600199999999999
170
     1
176
   179
177
     7
178
   179
179
     1
271
     3
272
     2
340
197
371
    25
372
    25
  0
DIMSTYLE
105
1EF
330
A
100
AcDbSymbolTableRecord
100
AcDbDimStyleTableRecord
  2
1_32 FRAZIONE
 70
     0
 41
2.5
340
60
342
1F0
  0
DIMSTYLE
105
1F7
330
A
100
AcDbSymbolTableRecord
100
AcDbDimStyleTableRecord
  2
1_64 FRAZIONE
 70
     0
 41
2.5
340
60
342
1F0
  0
DIMSTYLE
105
1F8
102
{ACAD_REACTORS
330
5C1
102
}
330
A
100
AcDbSymbolTableRecord
100
AcDbDimStyleTableRecord
  2
AM_ISO
 70
     0
 41
2.5
340
60
342
1F0
  0
DIMSTYLE
105
1F9
330
A
100
AcDbSymbolTableRecord
100
AcDbDimStyleTableRecord
  2
AM_ISO$3
 70
     0
 41
2.5
340
60
342
1F0
  0
DIMSTYLE
105
1FA
330
A
100
AcDbSymbolTableRecord
100
AcDbDimStyleTableRecord
  2
AM_ISO$4
 70
     0
 41
2.5
340
60
342
1F0
  0
DIMSTYLE
105
1FB
330
A
100
AcDbSymbolTableRecord
100
AcDbDimStyleTableRecord
  2
AM_ISO$6
 70
     0
 41
2.5
340
60
342
1F0
  0
DIMSTYLE
105
1FC
330
A
100
AcDbSymbolTableRecord
100
AcDbDimStyleTableRecord
  2
AM_ISO$7
 70
     0
 41
2.5
340
60
342
1F0
  0
DIMSTYLE
105
1FD
330
A
100
AcDbSymbolTableRecord
100
AcDbDimStyleTableRecord
  2
AM_ISO$SF
 70
     0
 41
2.5
340
60
342
1F0
  0
DIMSTYLE
105
1FE
330
A
100
AcDbSymbolTableRecord
100
AcDbDimStyleTableRecord
  2
AM_ISO$SH
 70
     0
 41
2.5
340
60
342
1F0
  0
DIMSTYLE
105
1FF
330
A
100
AcDbSymbolTableRecord
100
AcDbDimStyleTableRecord
  2
ANSI ALLINEATI
 70
     0
 41
2.5
340
60
342
1F0
  0
DIMSTYLE
105
200
330
A
100
AcDbSymbolTableRecord
100
AcDbDimStyleTableRecord
  2
ANSI FRAZIONE - ALLINEATI
 70
     0
 41
2.5
340
60
342
1F0
  0
DIMSTYLE
105
201
330
A
100
AcDbSymbolTableRecord
100
AcDbDimStyleTableRecord
  2
CADMEC_1-1
 70
     0
 41
2.5
340
60
342
1F0
  0
DIMSTYLE
105
202
330
A
100
AcDbSymbolTableRecord
100
AcDbDimStyleTableRecord
  2
DEFAULT-ANSI
 70
     0
 41
2.5
340
60
342
1F0
  0
DIMSTYLE
105
203
330
A
100
AcDbSymbolTableRecord
100
AcDbDimStyleTableRecord
  2
DEFAULT-ANSI FRAZIONE
 70
     0
 41
2.5
340
60
342
1F0
  0
DIMSTYLE
105
204
330
A
100
AcDbSymbolTableRecord
100
AcDbDimStyleTableRecord
  2
DEFAULT-BSI
 70
     0
 41
2.5
340
60
342
1F0
  0
DIMSTYLE
105
205
330
A
100
AcDbSymbolTableRecord
100
AcDbDimStyleTableRecord
  2
DEFAULT-DIN
 70
     0
 41
2.5
340
60
342
1F0
  0
DIMSTYLE
105
206
330
A
100
AcDbSymbolTableRecord
100
AcDbDimStyleTableRecord
  2
DEFAULT-DIN - Metodo 2a
 70
     0
 41
2.5
340
60
342
1F0
  0
DIMSTYLE
105
207
330
A
100
AcDbSymbolTableRecord
100
AcDbDimStyleTableRecord
  2
DEFAULT-DIN - Metodo 2b
 70
     0
 41
2.5
340
60
342
1F0
  0
DIMSTYLE
105
208
330
A
100
AcDbSymbolTableRecord
100
AcDbDimStyleTableRecord
  2
DEFAULT-ISO
 70
     0
 41
2.5
340
60
342
1F0
  0
DIMSTYLE
105
209
330
A
100
AcDbSymbolTableRecord
100
AcDbDimStyleTableRecord
  2
DEFAULT-ISO-Metodo 1b
 70
     0
 41
2.5
340
60
342
1F0
  0
DIMSTYLE
105
20A
330
A
100
AcDbSymbolTableRecord
100
AcDbDimStyleTableRecord
  2
DEFAULT-ISO-Metodo 2a
 70
     0
 41
2.5
340
60
342
1F0
  0
DIMSTYLE
105
20B
330
A
100
AcDbSymbolTableRecord
100
AcDbDimStyleTableRecord
  2
DEFAULT-ISO-Metodo 2b
 70
     0
 41
2.5
340
60
342
1F0
  0
DIMSTYLE
105
20C
330
A
100
AcDbSymbolTableRecord
100
AcDbDimStyleTableRecord
  2
DEFAULT-JIS
 70
     0
 41
2.5
340
60
342
1F0
  0
DIMSTYLE
105
20D
330
A
100
AcDbSymbolTableRecord
100
AcDbDimStyleTableRecord
  2
DEFAULT-JIS - Metodo 1b
 70
     0
 41
2.5
340
60
342
1F0
  0
DIMSTYLE
105
20E
330
A
100
AcDbSymbolTableRecord
100
AcDbDimStyleTableRecord
  2
Direttrice-Indicatore origine(ANSI)
 70
     0
 41
2.5
340
60
342
1F0
  0
DIMSTYLE
105
20F
330
A
100
AcDbSymbolTableRecord
100
AcDbDimStyleTableRecord
  2
Direttrice-Indicatore origine(BSI)
 70
     0
 41
2.5
340
60
342
1F0
  0
DIMSTYLE
105
210
330
A
100
AcDbSymbolTableRecord
100
AcDbDimStyleTableRecord
  2
Direttrice-Indicatore origine(DIN)
 70
     0
 41
2.5
340
60
342
1F0
  0
DIMSTYLE
105
211
330
A
100
AcDbSymbolTableRecord
100
AcDbDimStyleTableRecord
  2
Direttrice-Indicatore origine(GB)
 70
     0
 41
4.0
340
60
342
1F0
  0
DIMSTYLE
105
212
330
A
100
AcDbSymbolTableRecord
100
AcDbDimStyleTableRecord
  2
Direttrice-Indicatore origine(ISO)
 70
     0
 41
2.5
340
60
342
1F0
  0
DIMSTYLE
105
213
330
A
100
AcDbSymbolTableRecord
100
AcDbDimStyleTableRecord
  2
Direttrice-Indicatore origine(JIS)
 70
     0
 41
2.5
340
60
342
1F0
  0
DIMSTYLE
105
214
330
A
100
AcDbSymbolTableRecord
100
AcDbDimStyleTableRecord
  2
Direttrice-punto(ANSI)
 70
     0
 41
2.5
340
60
342
1F0
  0
DIMSTYLE
105
215
330
A
100
AcDbSymbolTableRecord
100
AcDbDimStyleTableRecord
  2
Direttrice-punto(BSI)
 70
     0
 41
2.5
340
60
342
1F0
  0
DIMSTYLE
105
216
330
A
100
AcDbSymbolTableRecord
100
AcDbDimStyleTableRecord
  2
Direttrice-punto(DIN)
 70
     0
 41
2.5
340
60
342
1F0
  0
DIMSTYLE
105
217
330
A
100
AcDbSymbolTableRecord
100
AcDbDimStyleTableRecord
  2
Direttrice-punto(GB)
 70
     0
 41
4.0
340
60
342
1F0
  0
DIMSTYLE
105
218
330
A
100
AcDbSymbolTableRecord
100
AcDbDimStyleTableRecord
  2
Direttrice-punto(ISO)
 70
     0
 41
2.5
340
60
342
1F0
  0
DIMSTYLE
105
219
330
A
100
AcDbSymbolTableRecord
100
AcDbDimStyleTableRecord
  2
Direttrice-punto(JIS)
 70
     0
 41
2.5
340
60
342
1F0
  0
DIMSTYLE
105
224
330
A
100
AcDbSymbolTableRecord
100
AcDbDimStyleTableRecord
  2
Direttrice-riferimento(ANSI)
 70
     0
 41
2.5
340
60
342
1F0
  0
DIMSTYLE
105
225
330
A
100
AcDbSymbolTableRecord
100
AcDbDimStyleTableRecord
  2
Direttrice-riferimento(BSI)
 70
     0
 41
2.5
340
60
342
1F0
  0
DIMSTYLE
105
226
330
A
100
AcDbSymbolTableRecord
100
AcDbDimStyleTableRecord
  2
Direttrice-riferimento(DIN)
 70
     0
 41
2.5
340
60
342
1F0
  0
DIMSTYLE
105
248
330
A
100
AcDbSymbolTableRecord
100
AcDbDimStyleTableRecord
  2
Direttrice-riferimento(GB)
 70
     0
 41
4.0
340
60
342
1F0
  0
DIMSTYLE
105
249
330
A
100
AcDbSymbolTableRecord
100
AcDbDimStyleTableRecord
  2
Direttrice-riferimento(ISO)
 70
     0
 41
2.5
340
60
342
1F0
  0
DIMSTYLE
105
24A
330
A
100
AcDbSymbolTableRecord
100
AcDbDimStyleTableRecord
  2
Direttrice-riferimento(JIS)
 70
     0
 41
2.5
340
60
342
1F0
  0
DIMSTYLE
105
24B
330
A
100
AcDbSymbolTableRecord
100
AcDbDimStyleTableRecord
  2
Direttrice(ANSI)
 70
     0
 41
2.5
340
60
342
1F0
  0
DIMSTYLE
105
24C
330
A
100
AcDbSymbolTableRecord
100
AcDbDimStyleTableRecord
  2
Direttrice(BSI)
 70
     0
 41
2.5
340
60
342
1F0
  0
DIMSTYLE
105
24D
330
A
100
AcDbSymbolTableRecord
100
AcDbDimStyleTableRecord
  2
Direttrice(DIN)
 70
     0
 41
2.5
340
60
342
1F0
  0
DIMSTYLE
105
24E
330
A
100
AcDbSymbolTableRecord
100
AcDbDimStyleTableRecord
  2
Direttrice(GB)
 70
     0
 41
4.0
340
60
342
1F0
  0
DIMSTYLE
105
24F
330
A
100
AcDbSymbolTableRecord
100
AcDbDimStyleTableRecord
  2
Direttrice(ISO)
 70
     0
 41
2.5
340
60
342
1F0
  0
DIMSTYLE
105
250
330
A
100
AcDbSymbolTableRecord
100
AcDbDimStyleTableRecord
  2
Direttrice(JIS)
 70
     0
 41
2.5
340
60
342
1F0
  0
DIMSTYLE
105
251
330
A
100
AcDbSymbolTableRecord
100
AcDbDimStyleTableRecord
  2
GEN-ISO
 70
     0
 41
2.5
340
60
342
1F0
  0
DIMSTYLE
105
252
330
A
100
AcDbSymbolTableRecord
100
AcDbDimStyleTableRecord
  2
GEN-ISO-AXE-F
 70
     0
 41
2.5
340
60
342
1F0
  0
DIMSTYLE
105
253
330
A
100
AcDbSymbolTableRecord
100
AcDbDimStyleTableRecord
  2
GEN-ISO-AXE-H
 70
     0
 41
2.5
340
60
342
1F0
  0
DIMSTYLE
105
254
330
A
100
AcDbSymbolTableRecord
100
AcDbDimStyleTableRecord
  2
GEN-ISO-POS
 70
     0
 41
2.5
340
60
342
1F0
  0
DIMSTYLE
105
255
330
A
100
AcDbSymbolTableRecord
100
AcDbDimStyleTableRecord
  2
GEN-ISO$3
 70
     0
 41
2.5
340
60
342
1F0
  0
DIMSTYLE
105
256
330
A
100
AcDbSymbolTableRecord
100
AcDbDimStyleTableRecord
  2
GEN-ISO$4
 70
     0
 41
2.5
340
60
342
1F0
  0
DIMSTYLE
105
257
330
A
100
AcDbSymbolTableRecord
100
AcDbDimStyleTableRecord
  2
GEN-ISO$6
 70
     0
 41
2.5
340
60
342
1F0
  0
DIMSTYLE
105
258
330
A
100
AcDbSymbolTableRecord
100
AcDbDimStyleTableRecord
  2
ISO-25
 70
     0
 41
2.5
340
60
342
1F0
  0
DIMSTYLE
105
259
330
A
100
AcDbSymbolTableRecord
100
AcDbDimStyleTableRecord
  2
ISO-35
 70
     0
 41
2.5
340
60
342
1F0
  0
DIMSTYLE
105
25A
330
A
100
AcDbSymbolTableRecord
100
AcDbDimStyleTableRecord
  2
ISO-5
 70
     0
 41
2.5
340
60
342
1F0
  0
DIMSTYLE
105
25B
330
A
100
AcDbSymbolTableRecord
100
AcDbDimStyleTableRecord
  2
ISO-7
 70
     0
 41
2.5
340
60
342
1F0
  0
DIMSTYLE
105
25C
330
A
100
AcDbSymbolTableRecord
100
AcDbDimStyleTableRecord
  2
ISO1
 70
     0
 41
2.5
340
60
342
1F0
  0
DIMSTYLE
105
25D
330
A
100
AcDbSymbolTableRecord
100
AcDbDimStyleTableRecord
  2
ISO1-4
 70
     0
 41
2.5
340
60
342
1F0
  0
DIMSTYLE
105
25E
330
A
100
AcDbSymbolTableRecord
100
AcDbDimStyleTableRecord
  2
ISO2
 70
     0
 41
2.5
340
60
342
1F0
  0
DIMSTYLE
105
25F
330
A
100
AcDbSymbolTableRecord
100
AcDbDimStyleTableRecord
  2
MM-ANSI
 70
     0
 41
2.5
340
60
342
1F0
  0
DIMSTYLE
105
260
330
A
100
AcDbSymbolTableRecord
100
AcDbDimStyleTableRecord
  2
X . XXX
 70
     0
 41
2.5
340
60
342
1F0
  0
DIMSTYLE
105
261
330
A
100
AcDbSymbolTableRecord
100
AcDbDimStyleTableRecord
  2
X.X spazio grande e testo
 70
     0
 41
2.5
340
60
342
1F0
  0
DIMSTYLE
105
262
330
A
100
AcDbSymbolTableRecord
100
AcDbDimStyleTableRecord
  2
X.XX mm [pollici]
 70
     0
 41
2.5
340
60
342
1F0
  0
DIMSTYLE
105
263
330
A
100
AcDbSymbolTableRecord
100
AcDbDimStyleTableRecord
  2
X.XX Tol. di scostamento
 70
     0
 41
2.5
340
60
342
1F0
  0
DIMSTYLE
105
264
330
A
100
AcDbSymbolTableRecord
100
AcDbDimStyleTableRecord
  2
X.XXX
 70
     0
 41
2.5
340
60
342
1F0
  0
DIMSTYLE
105
265
330
A
100
AcDbSymbolTableRecord
100
AcDbDimStyleTableRecord
  2
X.XXX +_- tolleranza
 70
     0
 41
2.5
340
60
342
1F0
  0
DIMSTYLE
105
266
330
A
100
AcDbSymbolTableRecord
100
AcDbDimStyleTableRecord
  2
X.XXX +tolleranza_-tolleranza
 70
     0
 41
2.5
340
60
342
1F0
  0
DIMSTYLE
105
267
330
A
100
AcDbSymbolTableRecord
100
AcDbDimStyleTableRecord
  2
X.XXX Limiti - Impilati
 70
     0
 41
2.5
340
60
342
1F0
  0
DIMSTYLE
105
268
330
A
100
AcDbSymbolTableRecord
100
AcDbDimStyleTableRecord
  2
X.XXX mm [pollici]
 70
     0
 41
2.5
340
60
342
1F0
  0
DIMSTYLE
105
269
330
A
100
AcDbSymbolTableRecord
100
AcDbDimStyleTableRecord
  2
X.XXX piccola tolleranza
 70
     0
 41
2.5
340
60
342
1F0
  0
DIMSTYLE
105
26A
330
A
100
AcDbSymbolTableRecord
100
AcDbDimStyleTableRecord
  2
X.XXX radiale
 70
     0
 41
2.5
340
60
342
1F0
  0
ENDTAB
  0
TABLE
  2
BLOCK_RECORD
  5
1
330
0
100
AcDbSymbolTable
 70
    12
  0
BLOCK_RECORD
  5
77
330
1
100
AcDbSymbolTableRecord
100
AcDbBlockTableRecord
  2
*Model_Space
340
7A
  0
BLOCK_RECORD
  5
73
330
1
100
AcDbSymbolTableRecord
100
AcDbBlockTableRecord
  2
*Paper_Space
340
76
  0
BLOCK_RECORD
  5
7B
330
1
100
AcDbSymbolTableRecord
100
AcDbBlockTableRecord
  2
*Paper_Space0
340
7E
  0
BLOCK_RECORD
  5
1C7
330
1
100
AcDbSymbolTableRecord
100
AcDbBlockTableRecord
  2
Filled-1
340
0
  0
BLOCK_RECORD
  5
1DA
330
1
100
AcDbSymbolTableRecord
100
AcDbBlockTableRecord
  2
_Open
340
0
  0
BLOCK_RECORD
  5
1F0
330
1
100
AcDbSymbolTableRecord
100
AcDbBlockTableRecord
  2
_Closed
340
0
  0
BLOCK_RECORD
  5
21A
330
1
100
AcDbSymbolTableRecord
100
AcDbBlockTableRecord
  2
DatumFilled45
340
0
  0
BLOCK_RECORD
  5
227
330
1
100
AcDbSymbolTableRecord
100
AcDbBlockTableRecord
  2
DatumThickLine
340
0
  0
BLOCK_RECORD
  5
26B
330
1
100
AcDbSymbolTableRecord
100
AcDbBlockTableRecord
  2
REVISIONE
340
0
  0
BLOCK_RECORD
  5
28A
330
1
100
AcDbSymbolTableRecord
100
AcDbBlockTableRecord
  2
TIMBRO PER APPROVAZIONE
340
0
  0
BLOCK_RECORD
  5
299
330
1
100
AcDbSymbolTableRecord
100
AcDbBlockTableRecord
  2
TIMBRO INVIO DISEGNI
340
0
  0
BLOCK_RECORD
  5
2A4
330
1
100
AcDbSymbolTableRecord
100
AcDbBlockTableRecord
  2
Bordi Default Border
340
0
  0
BLOCK_RECORD
  5
3A1
330
1
100
AcDbSymbolTableRecord
100
AcDbBlockTableRecord
  2
Cartigli COMUNELLO
340
0
  0
ENDTAB
  0
ENDSEC
  0
SECTION
  2
BLOCKS
  0
BLOCK
  5
78
330
77
100
AcDbEntity
  8
0
100
AcDbBlockBegin
  2
*Model_Space
 70
     0
 10
0.0
 20
0.0
 30
0.0
  3
*Model_Space
  1

  0
ENDBLK
  5
79
330
77
100
AcDbEntity
  8
0
100
AcDbBlockEnd
  0
BLOCK
  5
74
330
73
100
AcDbEntity
 67
     1
  8
0
100
AcDbBlockBegin
  2
*Paper_Space
 70
     0
 10
0.0
 20
0.0
 30
0.0
  3
*Paper_Space
  1

  0
ENDBLK
  5
75
330
73
100
AcDbEntity
 67
     1
  8
0
100
AcDbBlockEnd
  0
BLOCK
  5
7C
330
7B
100
AcDbEntity
 67
     1
  8
0
100
AcDbBlockBegin
  2
*Paper_Space0
 70
     0
 10
0.0
 20
0.0
 30
0.0
  3
*Paper_Space0
  1

  0
ENDBLK
  5
7D
330
7B
100
AcDbEntity
 67
     1
  8
0
100
AcDbBlockEnd
  0
BLOCK
  5
1C8
330
1C7
100
AcDbEntity
  8
0
100
AcDbBlockBegin
  2
Filled-1
 70
     0
 10
0.0
 20
0.0
 30
0.0
  3
Filled-1
  1

  0
LINE
  5
1CA
330
1C7
100
AcDbEntity
  8
0
 62
     0
100
AcDbLine
 10
-1.0
 20
0.0
 30
0.0
 11
0.0
 21
0.0
 31
0.0
  0
POLYLINE
  5
1CB
330
1C7
100
AcDbEntity
  8
0
 62
     0
100
AcDb2dPolyline
 66
     1
 10
0.0
 20
0.0
 30
0.0
 70
   128
  0
VERTEX
  5
1CC
330
1CB
100
AcDbEntity
  8
0
 62
     0
100
AcDbVertex
100
AcDb2dVertex
 10
-1.0
 20
-0.125
 30
0.0
  0
VERTEX
  5
1CD
330
1CB
100
AcDbEntity
  8
0
 62
     0
100
AcDbVertex
100
AcDb2dVertex
 10
0.0
 20
0.0
 30
0.0
  0
VERTEX
  5
1CF
330
1CB
100
AcDbEntity
  8
0
 62
     0
100
AcDbVertex
100
AcDb2dVertex
 10
-1.0
 20
0.125
 30
0.0
  0
VERTEX
  5
1D0
330
1CB
100
AcDbEntity
  8
0
 62
     0
100
AcDbVertex
100
AcDb2dVertex
 10
-1.0
 20
-0.125
 30
0.0
  0
SEQEND
  5
1CE
330
1CB
100
AcDbEntity
  8
0
 62
     0
  0
SOLID
  5
1D1
330
1C7
100
AcDbEntity
  8
0
 62
     0
100
AcDbTrace
 10
-1.0
 20
-0.125
 30
0.0
 11
0.0
 21
0.0
 31
0.0
 12
-1.0
 22
0.125
 32
0.0
 13
-1.0
 23
-0.125
 33
0.0
  0
LINE
  5
1D2
330
1C7
100
AcDbEntity
  8
0
 62
     0
100
AcDbLine
 10
-1.0
 20
-0.125
 30
0.0
 11
0.0
 21
0.0
 31
0.0
  0
LINE
  5
1D3
330
1C7
100
AcDbEntity
  8
0
 62
     0
100
AcDbLine
 10
0.0
 20
0.0
 30
0.0
 11
-1.0
 21
0.125
 31
0.0
  0
LINE
  5
1D4
330
1C7
100
AcDbEntity
  8
0
 62
     0
100
AcDbLine
 10
-1.0
 20
0.125
 30
0.0
 11
-1.0
 21
-0.125
 31
0.0
  0
ENDBLK
  5
1C9
330
1C7
100
AcDbEntity
  8
0
100
AcDbBlockEnd
  0
BLOCK
  5
1DE
330
1DA
100
AcDbEntity
  8
0
100
AcDbBlockBegin
  2
_Open
 70
     0
 10
0.0
 20
0.0
 30
0.0
  3
_Open
  1

  0
LINE
  5
1DB
330
1DA
100
AcDbEntity
  8
0
  6
ByBlock
 62
     0
370
    -2
100
AcDbLine
 10
-1.0
 20
0.1666666666666666
 30
0.0
 11
0.0
 21
0.0
 31
0.0
  0
LINE
  5
1DC
330
1DA
100
AcDbEntity
  8
0
  6
ByBlock
 62
     0
370
    -2
100
AcDbLine
 10
-1.0
 20
-0.1666666666666666
 30
0.0
 11
0.0
 21
0.0
 31
0.0
  0
LINE
  5
1DD
330
1DA
100
AcDbEntity
  8
0
  6
ByBlock
 62
     0
370
    -2
100
AcDbLine
 10
0.0
 20
0.0
 30
0.0
 11
-1.0
 21
0.0
 31
0.0
  0
ENDBLK
  5
1DF
330
1DA
100
AcDbEntity
  8
0
100
AcDbBlockEnd
  0
BLOCK
  5
1F5
330
1F0
100
AcDbEntity
  8
0
100
AcDbBlockBegin
  2
_Closed
 70
     0
 10
0.0
 20
0.0
 30
0.0
  3
_Closed
  1

  0
LINE
  5
1F1
330
1F0
100
AcDbEntity
  8
0
  6
ByBlock
 62
     0
370
    -2
100
AcDbLine
 10
-1.0
 20
0.1666666666666666
 30
0.0
 11
0.0
 21
0.0
 31
0.0
  0
LINE
  5
1F2
330
1F0
100
AcDbEntity
  8
0
  6
ByBlock
 62
     0
370
    -2
100
AcDbLine
 10
0.0
 20
0.0
 30
0.0
 11
-1.0
 21
-0.1666666666666666
 31
0.0
  0
LINE
  5
1F3
330
1F0
100
AcDbEntity
  8
0
  6
ByBlock
 62
     0
370
    -2
100
AcDbLine
 10
-1.0
 20
0.1666666666666666
 30
0.0
 11
-1.0
 21
-0.1666666666666666
 31
0.0
  0
LINE
  5
1F4
330
1F0
100
AcDbEntity
  8
0
  6
ByBlock
 62
     0
370
    -2
100
AcDbLine
 10
0.0
 20
0.0
 30
0.0
 11
-1.0
 21
0.0
 31
0.0
  0
ENDBLK
  5
1F6
330
1F0
100
AcDbEntity
  8
0
100
AcDbBlockEnd
  0
BLOCK
  5
21B
330
21A
100
AcDbEntity
  8
0
100
AcDbBlockBegin
  2
DatumFilled45
 70
     0
 10
0.0
 20
0.0
 30
0.0
  3
DatumFilled45
  1

  0
POLYLINE
  5
21D
330
21A
100
AcDbEntity
  8
0
 62
     0
100
AcDb2dPolyline
 66
     1
 10
0.0
 20
0.0
 30
0.0
 70
   128
  0
VERTEX
  5
21E
330
21D
100
AcDbEntity
  8
0
 62
     0
100
AcDbVertex
100
AcDb2dVertex
 10
0.0
 20
1.0
 30
0.0
  0
VERTEX
  5
21F
330
21D
100
AcDbEntity
  8
0
 62
     0
100
AcDbVertex
100
AcDb2dVertex
 10
0.0
 20
-1.0
 30
0.0
  0
VERTEX
  5
221
330
21D
100
AcDbEntity
  8
0
 62
     0
100
AcDbVertex
100
AcDb2dVertex
 10
-1.0
 20
0.0
 30
0.0
  0
VERTEX
  5
222
330
21D
100
AcDbEntity
  8
0
 62
     0
100
AcDbVertex
100
AcDb2dVertex
 10
0.0
 20
1.0
 30
0.0
  0
SEQEND
  5
220
330
21D
100
AcDbEntity
  8
0
 62
     0
  0
SOLID
  5
223
330
21A
100
AcDbEntity
  8
0
 62
     0
100
AcDbTrace
 10
0.0
 20
1.0
 30
0.0
 11
0.0
 21
-1.0
 31
0.0
 12
-1.0
 22
0.0
 32
0.0
 13
0.0
 23
1.0
 33
0.0
  0
ENDBLK
  5
21C
330
21A
100
AcDbEntity
  8
0
100
AcDbBlockEnd
  0
BLOCK
  5
228
330
227
100
AcDbEntity
  8
0
100
AcDbBlockBegin
  2
DatumThickLine
 70
     0
 10
0.0
 20
0.0
 30
0.0
  3
DatumThickLine
  1

  0
POLYLINE
  5
22A
330
227
100
AcDbEntity
  8
0
 62
     0
100
AcDb2dPolyline
 66
     1
 10
0.0
 20
0.0
 30
0.0
 70
   128
  0
VERTEX
  5
22B
330
22A
100
AcDbEntity
  8
0
 62
     0
100
AcDbVertex
100
AcDb2dVertex
 10
-0.25
 20
1.0
 30
0.0
  0
VERTEX
  5
22C
330
22A
100
AcDbEntity
  8
0
 62
     0
100
AcDbVertex
100
AcDb2dVertex
 10
-0.25
 20
-1.0
 30
0.0
  0
VERTEX
  5
22E
330
22A
100
AcDbEntity
  8
0
 62
     0
100
AcDbVertex
100
AcDb2dVertex
 10
-0.5
 20
-1.0
 30
0.0
  0
VERTEX
  5
22F
330
22A
100
AcDbEntity
  8
0
 62
     0
100
AcDbVertex
100
AcDb2dVertex
 10
-0.25
 20
1.0
 30
0.0
  0
SEQEND
  5
22D
330
22A
100
AcDbEntity
  8
0
 62
     0
  0
SOLID
  5
230
330
227
100
AcDbEntity
  8
0
 62
     0
100
AcDbTrace
 10
-0.25
 20
1.0
 30
0.0
 11
-0.25
 21
-1.0
 31
0.0
 12
-0.5
 22
-1.0
 32
0.0
 13
-0.25
 23
1.0
 33
0.0
  0
POLYLINE
  5
231
330
227
100
AcDbEntity
  8
0
 62
     0
100
AcDb2dPolyline
 66
     1
 10
0.0
 20
0.0
 30
0.0
 70
   128
  0
VERTEX
  5
232
330
231
100
AcDbEntity
  8
0
 62
     0
100
AcDbVertex
100
AcDb2dVertex
 10
-0.25
 20
1.0
 30
0.0
  0
VERTEX
  5
233
330
231
100
AcDbEntity
  8
0
 62
     0
100
AcDbVertex
100
AcDb2dVertex
 10
-0.5
 20
-1.0
 30
0.0
  0
VERTEX
  5
235
330
231
100
AcDbEntity
  8
0
 62
     0
100
AcDbVertex
100
AcDb2dVertex
 10
-0.5
 20
-1.0
 30
0.0
  0
VERTEX
  5
236
330
231
100
AcDbEntity
  8
0
 62
     0
100
AcDbVertex
100
AcDb2dVertex
 10
-0.25
 20
1.0
 30
0.0
  0
SEQEND
  5
234
330
231
100
AcDbEntity
  8
0
 62
     0
  0
SOLID
  5
237
330
227
100
AcDbEntity
  8
0
 62
     0
100
AcDbTrace
 10
-0.25
 20
1.0
 30
0.0
 11
-0.5
 21
-1.0
 31
0.0
 12
-0.5
 22
-1.0
 32
0.0
 13
-0.25
 23
1.0
 33
0.0
  0
POLYLINE
  5
238
330
227
100
AcDbEntity
  8
0
 62
     0
100
AcDb2dPolyline
 66
     1
 10
0.0
 20
0.0
 30
0.0
 70
   128
  0
VERTEX
  5
239
330
238
100
AcDbEntity
  8
0
 62
     0
100
AcDbVertex
100
AcDb2dVertex
 10
-0.25
 20
1.0
 30
0.0
  0
VERTEX
  5
23A
330
238
100
AcDbEntity
  8
0
 62
     0
100
AcDbVertex
100
AcDb2dVertex
 10
-0.5
 20
-1.0
 30
0.0
  0
VERTEX
  5
23C
330
238
100
AcDbEntity
  8
0
 62
     0
100
AcDbVertex
100
AcDb2dVertex
 10
-0.5
 20
1.0
 30
0.0
  0
VERTEX
  5
23D
330
238
100
AcDbEntity
  8
0
 62
     0
100
AcDbVertex
100
AcDb2dVertex
 10
-0.25
 20
1.0
 30
0.0
  0
SEQEND
  5
23B
330
238
100
AcDbEntity
  8
0
 62
     0
  0
SOLID
  5
23E
330
227
100
AcDbEntity
  8
0
 62
     0
100
AcDbTrace
 10
-0.25
 20
1.0
 30
0.0
 11
-0.5
 21
-1.0
 31
0.0
 12
-0.5
 22
1.0
 32
0.0
 13
-0.25
 23
1.0
 33
0.0
  0
POLYLINE
  5
23F
330
227
100
AcDbEntity
  8
0
 62
     0
100
AcDb2dPolyline
 66
     1
 10
0.0
 20
0.0
 30
0.0
 70
   128
  0
VERTEX
  5
240
330
23F
100
AcDbEntity
  8
0
 62
     0
100
AcDbVertex
100
AcDb2dVertex
 10
-0.25
 20
1.0
 30
0.0
  0
VERTEX
  5
241
330
23F
100
AcDbEntity
  8
0
 62
     0
100
AcDbVertex
100
AcDb2dVertex
 10
-0.5
 20
1.0
 30
0.0
  0
VERTEX
  5
243
330
23F
100
AcDbEntity
  8
0
 62
     0
100
AcDbVertex
100
AcDb2dVertex
 10
-0.25
 20
1.0
 30
0.0
  0
VERTEX
  5
244
330
23F
100
AcDbEntity
  8
0
 62
     0
100
AcDbVertex
100
AcDb2dVertex
 10
-0.25
 20
1.0
 30
0.0
  0
SEQEND
  5
242
330
23F
100
AcDbEntity
  8
0
 62
     0
  0
SOLID
  5
245
330
227
100
AcDbEntity
  8
0
 62
     0
100
AcDbTrace
 10
-0.25
 20
1.0
 30
0.0
 11
-0.5
 21
1.0
 31
0.0
 12
-0.25
 22
1.0
 32
0.0
 13
-0.25
 23
1.0
 33
0.0
  0
LINE
  5
246
330
227
100
AcDbEntity
  8
0
 62
     0
100
AcDbLine
 10
-1.0
 20
0.0
 30
0.0
 11
-0.5
 21
0.0
 31
0.0
  0
LINE
  5
247
330
227
100
AcDbEntity
  8
0
 62
     0
100
AcDbLine
 10
-0.5
 20
0.0
 30
0.0
 11
-1.0
 21
0.0
 31
0.0
  0
ENDBLK
  5
229
330
227
100
AcDbEntity
  8
0
100
AcDbBlockEnd
  0
BLOCK
  5
26C
330
26B
100
AcDbEntity
  8
0
100
AcDbBlockBegin
  2
REVISIONE
 70
     2
 10
0.0
 20
0.0
 30
0.0
  3
REVISIONE
  1

  0
LINE
  5
26E
330
26B
100
AcDbEntity
  8
Geometria schizzo(ISO)
100
AcDbLine
 10
-95.0
 20
-6.499999999999994
 30
0.0
 11
-95.0
 21
6.49999999999995
 31
0.0
  0
LINE
  5
26F
330
26B
100
AcDbEntity
  8
Geometria schizzo(ISO)
100
AcDbLine
 10
-95.00000000000001
 20
6.49999999999995
 30
0.0
 11
94.99999999999998
 21
6.500000000000003
 31
0.0
  0
LINE
  5
270
330
26B
100
AcDbEntity
  8
Geometria schizzo(ISO)
100
AcDbLine
 10
95.0
 20
6.500000000000003
 30
0.0
 11
95.0
 21
-6.499999999999985
 31
0.0
  0
LINE
  5
271
330
26B
100
AcDbEntity
  8
Geometria schizzo(ISO)
100
AcDbLine
 10
95.0
 20
-6.499999999999985
 30
0.0
 11
-95.0
 21
-6.499999999999994
 31
0.0
  0
LINE
  5
272
330
26B
100
AcDbEntity
  8
Geometria schizzo(ISO)
100
AcDbLine
 10
14.28199999999996
 20
6.500000000000003
 30
0.0
 11
14.28199999999996
 21
-6.499999999999994
 31
0.0
  0
LINE
  5
273
330
26B
100
AcDbEntity
  8
Geometria schizzo(ISO)
100
AcDbLine
 10
20.14999999999997
 20
6.500000000000003
 30
0.0
 11
20.14999999999997
 21
-6.499999999999994
 31
0.0
  0
LINE
  5
274
330
26B
100
AcDbEntity
  8
Geometria schizzo(ISO)
100
AcDbLine
 10
45.09999999999998
 20
6.500000000000003
 30
0.0
 11
45.09999999999998
 21
-6.499999999999985
 31
0.0
  0
LINE
  5
275
330
26B
100
AcDbEntity
  8
Geometria schizzo(ISO)
100
AcDbLine
 10
70.04999999999999
 20
6.500000000000003
 30
0.0
 11
70.04999999999999
 21
-6.499999999999985
 31
0.0
  0
LINE
  5
276
330
26B
100
AcDbEntity
  8
Geometria schizzo(ISO)
100
AcDbLine
 10
-95.0
 20
-1.500000000000021
 30
0.0
 11
95.0
 21
-1.499999999999976
 31
0.0
  0
LINE
  5
277
330
26B
100
AcDbEntity
  8
Geometria schizzo(ISO)
100
AcDbLine
 10
20.14999999999997
 20
2.499999999999982
 30
0.0
 11
95.0
 21
2.500000000000017
 31
0.0
  0
MTEXT
  5
278
330
26B
100
AcDbEntity
  8
Simboli(ISO)
 62
    96
100
AcDbMText
 10
-40.24999999999997
 20
-4.249999999999989
 30
0.0
 40
2.489199936389923
 41
109.5
 71
     5
 72
     1
  1
\fArial|b0|i0;\H2.4892;Descrizione Revisione
  7
Corrente-ISO
 73
     1
 44
1.0
1001
ACAD
1000
MTEXTBEGIN
1070
    73
1070
     1
1070
    44
1040
1.0
1070
    74
1070
     0
1000
MTEXTEND
  0
MTEXT
  5
27A
330
26B
100
AcDbEntity
  8
Simboli(ISO)
 62
    96
100
AcDbMText
 10
17.20910565308934
 20
-4.010830382627901
 30
0.0
 40
2.489199936389923
 41
5.876843529209256
 71
     5
 72
     1
  1
\fArial|b0|i0;\W0.90;\H2.4892;Rev
  7
Corrente-ISO
 73
     1
 44
1.0
1001
ACAD
1000
MTEXTBEGIN
1070
    73
1070
     1
1070
    44
1040
1.0
1070
    74
1070
     0
1000
MTEXTEND
  0
MTEXT
  5
27B
330
26B
100
AcDbEntity
  8
Simboli(ISO)
 62
    96
100
AcDbMText
 10
32.68356521178614
 20
-4.036669839269944
 30
0.0
 40
2.489199936389923
 41
24.96635793550775
 71
     5
 72
     1
  1
\fArial|b0|i0;\H2.4892;Disegnato
  7
Corrente-ISO
 73
     1
 44
1.0
1001
ACAD
1000
MTEXTBEGIN
1070
    73
1070
     1
1070
    44
1040
1.0
1070
    74
1070
     0
1000
MTEXTEND
  0
MTEXT
  5
27C
330
26B
100
AcDbEntity
  8
Simboli(ISO)
 62
    96
100
AcDbMText
 10
57.57373402865312
 20
-4.00232928281115
 30
0.0
 40
2.489199936389923
 41
24.92816610583702
 71
     5
 72
     1
  1
\fArial|b0|i0;\H2.4892;Verificato
  7
Corrente-ISO
 73
     1
 44
1.0
1001
ACAD
1000
MTEXTBEGIN
1070
    73
1070
     1
1070
    44
1040
1.0
1070
    74
1070
     0
1000
MTEXTEND
  0
MTEXT
  5
27D
330
26B
100
AcDbEntity
  8
Simboli(ISO)
 62
    96
100
AcDbMText
 10
82.5334947683379
 20
-4.033923917081256
 30
0.0
 40
2.489199936389923
 41
24.9913553735324
 71
     5
 72
     1
  1
\fArial|b0|i0;\H2.4892;Approvato
  7
Corrente-ISO
 73
     1
 44
1.0
1001
ACAD
1000
MTEXTBEGIN
1070
    73
1070
     1
1070
    44
1040
1.0
1070
    74
1070
     0
1000
MTEXTEND
  0
ATTDEF
  5
27F
102
{ACAD_XDICTIONARY
360
459
102
}
330
26B
100
AcDbEntity
  8
Simboli(ISO)
 62
     7
100
AcDbText
 10
-93.74928292882428
 20
2.972124334461173
 30
0.0
 40
2.489199936389923
  1
MODIFICATO QUOTA DA 20 A 25
  7
Stile testo15
100
AcDbAttributeDefinition
  3
DESCRIZIONE 1
  2
DESCRIZIONE_1_001
 70
     0
  0
ATTDEF
  5
282
102
{ACAD_XDICTIONARY
360
45C
102
}
330
26B
100
AcDbEntity
  8
Simboli(ISO)
 62
     7
100
AcDbText
 10
-93.82699530276289
 20
-0.595967676708459
 30
0.0
 40
2.489199936389923
  1
MODIFICATO INTERASSE DA 80 A 90
  7
Stile testo15
100
AcDbAttributeDefinition
  3
DESCRIZIONE 2
  2
DESCRIZIONE_2_001
 70
     0
  0
ATTDEF
  5
284
102
{ACAD_XDICTIONARY
360
45F
102
}
330
26B
100
AcDbEntity
  8
Simboli(ISO)
 62
     7
100
AcDbText
 10
15.07942979937668
 20
0.7317788596934767
 30
0.0
 40
3.499999940395355
  1
01
 41
0.9
  7
Stile testo116
100
AcDbAttributeDefinition
  3
NR.REV
  2
NR.REV_001
 70
     0
  0
ATTDEF
  5
286
102
{ACAD_XDICTIONARY
360
464
102
}
330
26B
100
AcDbEntity
  8
Simboli(ISO)
 62
     7
100
AcDbText
 10
24.69266896187769
 20
5.319801944745019
 30
0.0
 40
2.489199936389923
  1
FRIGETTO
 41
0.9
  7
Stile testo115
100
AcDbAttributeDefinition
  3
DISEGNATO
  2
DISEGNATO_001
 70
     0
  0
ATTDEF
  5
287
102
{ACAD_XDICTIONARY
360
467
102
}
330
26B
100
AcDbEntity
  8
Simboli(ISO)
 62
     7
100
AcDbText
 10
25.77243061391258
 20
-0.7581010970848934
 30
0.0
 40
2.489199936389923
  1
12-12-01
  7
Stile testo15
100
AcDbAttributeDefinition
  3
DATA
  2
DATA_001
 70
     0
  0
ATTDEF
  5
288
102
{ACAD_XDICTIONARY
360
46A
102
}
330
26B
100
AcDbEntity
  8
Simboli(ISO)
 62
     7
100
AcDbText
 10
50.77760502093152
 20
-0.743400818037856
 30
0.0
 40
2.489199936389923
  1
12-12-01
  7
Stile testo15
100
AcDbAttributeDefinition
  3
DATA
  2
DATA_001
 70
     0
  0
ATTDEF
  5
289
102
{ACAD_XDICTIONARY
360
46D
102
}
330
26B
100
AcDbEntity
  8
Simboli(ISO)
 62
     7
100
AcDbText
 10
75.72397831235503
 20
-0.7581010970848579
 30
0.0
 40
2.489199936389923
  1
12-12-01
  7
Stile testo15
100
AcDbAttributeDefinition
  3
DATA
  2
DATA_001
 70
     0
  0
ATTDEF
  5
5FD
102
{ACAD_XDICTIONARY
360
5FE
102
}
330
26B
100
AcDbEntity
  8
Simboli(ISO)
 62
     7
100
AcDbText
 10
26.79083019066148
 20
1.126988591226022
 30
0.0
 40
2.489199936389923
  1
MAURO
 41
0.9
  7
Stile testo115
100
AcDbAttributeDefinition
  3
DISEGNATO
  2
DISEGNATO_002
 70
     0
  0
ENDBLK
  5
26D
330
26B
100
AcDbEntity
  8
0
100
AcDbBlockEnd
  0
BLOCK
  5
28B
330
28A
100
AcDbEntity
  8
0
100
AcDbBlockBegin
  2
TIMBRO PER APPROVAZIONE
 70
     0
 10
0.0
 20
0.0
 30
0.0
  3
TIMBRO PER APPROVAZIONE
  1

  0
LINE
  5
28D
330
28A
100
AcDbEntity
  8
Geometria schizzo(ISO)
 62
     7
100
AcDbLine
 10
34.85000000000001
 20
-9.100000000000004
 30
0.0
 11
-34.84999999999999
 21
-9.099999999999997
 31
0.0
  0
LINE
  5
28E
330
28A
100
AcDbEntity
  8
Geometria schizzo(ISO)
 62
     7
100
AcDbLine
 10
35.25
 20
-16.5
 30
0.0
 11
-35.24999999999999
 21
-16.5
 31
0.0
  0
LINE
  5
28F
330
28A
100
AcDbEntity
  8
Geometria schizzo(ISO)
 62
     7
100
AcDbLine
 10
-35.24999999999999
 20
-16.5
 30
0.0
 11
-35.25
 21
16.5
 31
0.0
  0
LINE
  5
290
330
28A
100
AcDbEntity
  8
Geometria schizzo(ISO)
 62
     7
100
AcDbLine
 10
-35.25
 20
16.5
 30
0.0
 11
35.25000000000001
 21
16.5
 31
0.0
  0
LINE
  5
291
330
28A
100
AcDbEntity
  8
Geometria schizzo(ISO)
 62
     7
100
AcDbLine
 10
35.25
 20
16.5
 30
0.0
 11
35.25
 21
-16.5
 31
0.0
  0
MTEXT
  5
292
330
28A
100
AcDbEntity
  8
Simboli(ISO)
 62
     7
100
AcDbMText
 10
-33.7105069207141
 20
-14.19215346071146
 30
0.0
 40
2.5
 41
0.0
 71
     7
 72
     1
  1
\fSwis721 BT|b0|i0;\H2.5000;DATA.........................FIRMA..........................
  7
Corrente-ISO
 73
     1
 44
1.25
1001
ACAD
1000
MTEXTBEGIN
1070
    73
1070
     1
1070
    44
1040
1.25
1070
    74
1070
     0
1000
MTEXTEND
  0
MTEXT
  5
293
330
28A
100
AcDbEntity
  8
Simboli(ISO)
 62
     7
100
AcDbMText
 10
-25.72449588474212
 20
11.13847904581678
 30
0.0
 40
3.499999940395355
 41
0.0
 71
     7
 72
     1
  1
\fSwis721 BT|b0|i0;\H3.5000;RESTITUIRE FIRMATO
  7
Corrente-ISO
 73
     1
 44
1.25
1001
ACAD
1000
MTEXTBEGIN
1070
    73
1070
     1
1070
    44
1040
1.25
1070
    74
1070
     0
1000
MTEXTEND
  0
MTEXT
  5
294
330
28A
100
AcDbEntity
  8
Simboli(ISO)
 62
     7
100
AcDbMText
 10
-28.95171691808511
 20
7.316396977395109
 30
0.0
 40
2.000000029802322
 41
0.0
 71
     7
 72
     1
  1
\fSwis721 BT|b0|i0;\H2.0000;L'APPROVAZIONE DEL DISEGNO DEFINISCE
  7
Corrente-ISO
 73
     1
 44
1.25
1001
ACAD
1000
MTEXTBEGIN
1070
    73
1070
     1
1070
    44
1040
1.25
1070
    74
1070
     0
1000
MTEXTEND
  0
MTEXT
  5
295
330
28A
100
AcDbEntity
  8
Simboli(ISO)
 62
     7
100
AcDbMText
 10
-25.76940871751251
 20
4.544968949952115
 30
0.0
 40
2.000000029802322
 41
0.0
 71
     7
 72
     1
  1
\fSwis721 BT|b0|i0;\H2.0000;L'ORDINE ED IL SUO PROSEGUIMENTO
  7
Corrente-ISO
 73
     1
 44
1.25
1001
ACAD
1000
MTEXTBEGIN
1070
    73
1070
     1
1070
    44
1040
1.25
1070
    74
1070
     0
1000
MTEXTEND
  0
MTEXT
  5
296
330
28A
100
AcDbEntity
  8
Simboli(ISO)
 62
     7
100
AcDbMText
 10
-31.13563506443334
 20
-5.098775396401857
 30
0.0
 40
2.000000029802322
 41
0.0
 71
     7
 72
     1
  1
\fSwis721 BT|b0|i0;\H2.0000;THE APPROVAL OF THE DRAWING DETERMINES
  7
Corrente-ISO
 73
     1
 44
1.25
1001
ACAD
1000
MTEXTBEGIN
1070
    73
1070
     1
1070
    44
1040
1.25
1070
    74
1070
     0
1000
MTEXTEND
  0
MTEXT
  5
297
330
28A
100
AcDbEntity
  8
Simboli(ISO)
 62
     7
100
AcDbMText
 10
-24.30740641391715
 20
-7.870204115351859
 30
0.0
 40
2.000000029802322
 41
0.0
 71
     7
 72
     1
  1
\fSwis721 BT|b0|i0;\H2.0000;THE ORDER AND ITS PROSECUTION
  7
Corrente-ISO
 73
     1
 44
1.25
1001
ACAD
1000
MTEXTBEGIN
1070
    73
1070
     1
1070
    44
1040
1.25
1070
    74
1070
     0
1000
MTEXTEND
  0
MTEXT
  5
298
330
28A
100
AcDbEntity
  8
Simboli(ISO)
 62
     7
100
AcDbMText
 10
-19.82985272453558
 20
-2.084089723680357
 30
0.0
 40
3.499999940395355
 41
0.0
 71
     7
 72
     1
  1
\fSwis721 BT|b0|i0;\H3.5000;RETURN SIGNED
  7
Corrente-ISO
 73
     1
 44
1.25
1001
ACAD
1000
MTEXTBEGIN
1070
    73
1070
     1
1070
    44
1040
1.25
1070
    74
1070
     0
1000
MTEXTEND
  0
ENDBLK
  5
28C
330
28A
100
AcDbEntity
  8
0
100
AcDbBlockEnd
  0
BLOCK
  5
29A
330
299
100
AcDbEntity
  8
0
100
AcDbBlockBegin
  2
TIMBRO INVIO DISEGNI
 70
     0
 10
0.0
 20
0.0
 30
0.0
  3
TIMBRO INVIO DISEGNI
  1

  0
LINE
  5
29C
330
299
100
AcDbEntity
  8
Geometria schizzo(ISO)
  6
Continuous
370
   140
100
AcDbLine
 10
0.0
 20
22.49999999999998
 30
0.0
 11
0.0
 21
0.0
 31
0.0
  0
LINE
  5
29D
330
299
100
AcDbEntity
  8
Geometria schizzo(ISO)
  6
Continuous
370
   140
100
AcDbLine
 10
0.0
 20
0.0
 30
0.0
 11
70.50000000000008
 21
0.0
 31
0.0
  0
LINE
  5
29E
330
299
100
AcDbEntity
  8
Geometria schizzo(ISO)
  6
Continuous
370
   140
100
AcDbLine
 10
70.50000000000008
 20
0.0
 30
0.0
 11
70.50000000000003
 21
22.5
 31
0.0
  0
LINE
  5
29F
330
299
100
AcDbEntity
  8
Geometria schizzo(ISO)
  6
Continuous
370
   140
100
AcDbLine
 10
70.50000000000003
 20
22.5
 30
0.0
 11
0.0
 21
22.49999999999998
 31
0.0
  0
MTEXT
  5
2A0
330
299
100
AcDbEntity
  8
Simboli(ISO)
 62
     7
100
AcDbMText
 10
2.899336189043077
 20
19.99303336238528
 30
0.0
 40
2.489199936389923
 41
66.17203235626219
 71
     1
 72
     1
  1
\fArial|b1|i0;\H2.4892;INVIO DISEGNO TRAMITE COMPUTER
  7
Corrente-ISO
 73
     1
 44
1.0
1001
ACAD
1000
MTEXTBEGIN
1070
    73
1070
     1
1070
    44
1040
1.0
1070
    74
1070
     0
1000
MTEXTEND
  0
MTEXT
  5
2A1
330
299
100
AcDbEntity
  8
Simboli(ISO)
 62
     7
100
AcDbMText
 10
6.717374444392016
 20
13.05512495578345
 30
0.0
 40
2.209800034761428
 41
56.78950309753417
 71
     1
 72
     1
  1
\fArial|b0|i0;\H2.2098;FIRME DI VERIFICA E APPROVAZIONE
  7
Corrente-ISO
 73
     1
 44
1.0
1001
ACAD
1000
MTEXTBEGIN
1070
    73
1070
     1
1070
    44
1040
1.0
1070
    74
1070
     0
1000
MTEXTEND
  0
MTEXT
  5
2A2
330
299
100
AcDbEntity
  8
Simboli(ISO)
 62
     7
100
AcDbMText
 10
6.65344964311584
 20
9.044092769503713
 30
0.0
 40
2.209800034761428
 41
57.3048973083496
 71
     1
 72
     1
  1
\fArial|b0|i0;\H2.2098;RIPORTATE SUL DISEGNO ORIGINALE
  7
Corrente-ISO
 73
     1
 44
1.0
1001
ACAD
1000
MTEXTBEGIN
1070
    73
1070
     1
1070
    44
1040
1.0
1070
    74
1070
     0
1000
MTEXTEND
  0
MTEXT
  5
2A3
330
299
100
AcDbEntity
  8
Simboli(ISO)
 62
     7
100
AcDbMText
 10
4.053371845049107
 20
4.974204064852525
 30
0.0
 40
2.209800034761428
 41
62.52453804016113
 71
     1
 72
     1
  1
\fArial|b0|i0;\H2.2098;ARCHIVIATE PRESSO L'UFFICIO TECNICO
  7
Corrente-ISO
 73
     1
 44
1.0
1001
ACAD
1000
MTEXTBEGIN
1070
    73
1070
     1
1070
    44
1040
1.0
1070
    74
1070
     0
1000
MTEXTEND
  0
ENDBLK
  5
29B
330
299
100
AcDbEntity
  8
0
100
AcDbBlockEnd
  0
BLOCK
  5
2A5
330
2A4
100
AcDbEntity
  8
0
100
AcDbBlockBegin
  2
Bordi Default Border
 70
     0
 10
0.0
 20
0.0
 30
0.0
  3
Bordi Default Border
  1

  0
POLYLINE
  5
2A7
330
2A4
100
AcDbEntity
  8
Bordo_0
100
AcDb2dPolyline
 66
     1
 10
0.0
 20
0.0
 30
0.0
 70
   128
  0
VERTEX
  5
2A8
330
2A7
100
AcDbEntity
  8
Bordo_0
100
AcDbVertex
100
AcDb2dVertex
 10
10.0
 20
10.0
 30
0.0
  0
VERTEX
  5
2A9
330
2A7
100
AcDbEntity
  8
Bordo_0
100
AcDbVertex
100
AcDb2dVertex
 10
10.0
 20
287.0000076293946
 30
0.0
  0
VERTEX
  5
2AB
330
2A7
100
AcDbEntity
  8
Bordo_0
100
AcDbVertex
100
AcDb2dVertex
 10
410.0
 20
287.0000076293946
 30
0.0
  0
VERTEX
  5
2AC
330
2A7
100
AcDbEntity
  8
Bordo_0
100
AcDbVertex
100
AcDb2dVertex
 10
410.0
 20
10.0
 30
0.0
  0
VERTEX
  5
2AD
330
2A7
100
AcDbEntity
  8
Bordo_0
100
AcDbVertex
100
AcDb2dVertex
 10
10.0
 20
10.0
 30
0.0
  0
SEQEND
  5
2AA
330
2A7
100
AcDbEntity
  8
Bordo_0
  0
POLYLINE
  5
2AE
330
2A4
100
AcDbEntity
  8
Bordo_0
100
AcDb2dPolyline
 66
     1
 10
0.0
 20
0.0
 30
0.0
 70
   128
  0
VERTEX
  5
2AF
330
2AE
100
AcDbEntity
  8
Bordo_0
100
AcDbVertex
100
AcDb2dVertex
 10
210.0
 20
0.0
 30
0.0
  0
VERTEX
  5
2B0
330
2AE
100
AcDbEntity
  8
Bordo_0
100
AcDbVertex
100
AcDb2dVertex
 10
210.0
 20
10.0
 30
0.0
  0
VERTEX
  5
2B2
330
2AE
100
AcDbEntity
  8
Bordo_0
100
AcDbVertex
100
AcDb2dVertex
 10
207.1132469177246
 20
5.0
 30
0.0
  0
VERTEX
  5
2B3
330
2AE
100
AcDbEntity
  8
Bordo_0
100
AcDbVertex
100
AcDb2dVertex
 10
212.8867530822754
 20
5.0
 30
0.0
  0
VERTEX
  5
2B4
330
2AE
100
AcDbEntity
  8
Bordo_0
100
AcDbVertex
100
AcDb2dVertex
 10
210.0
 20
10.0
 30
0.0
  0
SEQEND
  5
2B1
330
2AE
100
AcDbEntity
  8
Bordo_0
  0
POLYLINE
  5
2B5
330
2A4
100
AcDbEntity
  8
Bordo_0
100
AcDb2dPolyline
 66
     1
 10
0.0
 20
0.0
 30
0.0
 70
   128
  0
VERTEX
  5
2B6
330
2B5
100
AcDbEntity
  8
Bordo_0
100
AcDbVertex
100
AcDb2dVertex
 10
210.0
 20
297.0000076293946
 30
0.0
  0
VERTEX
  5
2B7
330
2B5
100
AcDbEntity
  8
Bordo_0
100
AcDbVertex
100
AcDb2dVertex
 10
210.0
 20
287.0000076293946
 30
0.0
  0
VERTEX
  5
2B9
330
2B5
100
AcDbEntity
  8
Bordo_0
100
AcDbVertex
100
AcDb2dVertex
 10
207.1132469177246
 20
292.0000076293945
 30
0.0
  0
VERTEX
  5
2BA
330
2B5
100
AcDbEntity
  8
Bordo_0
100
AcDbVertex
100
AcDb2dVertex
 10
212.8867530822754
 20
292.0000076293945
 30
0.0
  0
VERTEX
  5
2BB
330
2B5
100
AcDbEntity
  8
Bordo_0
100
AcDbVertex
100
AcDb2dVertex
 10
210.0
 20
287.0000076293946
 30
0.0
  0
SEQEND
  5
2B8
330
2B5
100
AcDbEntity
  8
Bordo_0
  0
POLYLINE
  5
2BC
330
2A4
100
AcDbEntity
  8
Bordo_0
100
AcDb2dPolyline
 66
     1
 10
0.0
 20
0.0
 30
0.0
 70
   128
  0
VERTEX
  5
2BD
330
2BC
100
AcDbEntity
  8
Bordo_0
100
AcDbVertex
100
AcDb2dVertex
 10
0.0
 20
148.5000038146973
 30
0.0
  0
VERTEX
  5
2BE
330
2BC
100
AcDbEntity
  8
Bordo_0
100
AcDbVertex
100
AcDb2dVertex
 10
10.0
 20
148.5000038146973
 30
0.0
  0
VERTEX
  5
2C0
330
2BC
100
AcDbEntity
  8
Bordo_0
100
AcDbVertex
100
AcDb2dVertex
 10
5.0
 20
151.3867473602295
 30
0.0
  0
VERTEX
  5
2C1
330
2BC
100
AcDbEntity
  8
Bordo_0
100
AcDbVertex
100
AcDb2dVertex
 10
5.0
 20
145.6132507324219
 30
0.0
  0
VERTEX
  5
2C2
330
2BC
100
AcDbEntity
  8
Bordo_0
100
AcDbVertex
100
AcDb2dVertex
 10
10.0
 20
148.5000038146973
 30
0.0
  0
SEQEND
  5
2BF
330
2BC
100
AcDbEntity
  8
Bordo_0
  0
POLYLINE
  5
2C3
330
2A4
100
AcDbEntity
  8
Bordo_0
100
AcDb2dPolyline
 66
     1
 10
0.0
 20
0.0
 30
0.0
 70
   128
  0
VERTEX
  5
2C4
330
2C3
100
AcDbEntity
  8
Bordo_0
100
AcDbVertex
100
AcDb2dVertex
 10
420.0
 20
148.5000038146973
 30
0.0
  0
VERTEX
  5
2C5
330
2C3
100
AcDbEntity
  8
Bordo_0
100
AcDbVertex
100
AcDb2dVertex
 10
410.0
 20
148.5000038146973
 30
0.0
  0
VERTEX
  5
2C7
330
2C3
100
AcDbEntity
  8
Bordo_0
100
AcDbVertex
100
AcDb2dVertex
 10
415.0
 20
151.3867473602295
 30
0.0
  0
VERTEX
  5
2C8
330
2C3
100
AcDbEntity
  8
Bordo_0
100
AcDbVertex
100
AcDb2dVertex
 10
415.0
 20
145.6132507324219
 30
0.0
  0
VERTEX
  5
2C9
330
2C3
100
AcDbEntity
  8
Bordo_0
100
AcDbVertex
100
AcDb2dVertex
 10
410.0
 20
148.5000038146973
 30
0.0
  0
SEQEND
  5
2C6
330
2C3
100
AcDbEntity
  8
Bordo_0
  0
LINE
  5
2CA
330
2A4
100
AcDbEntity
  8
Bordo_0
100
AcDbLine
 10
70.0
 20
10.0
 30
0.0
 11
70.0
 21
6.100000143051147
 31
0.0
  0
LINE
  5
2CB
330
2A4
100
AcDbEntity
  8
Bordo_0
100
AcDbLine
 10
70.0
 20
287.0000076293946
 30
0.0
 11
70.0
 21
290.9000015258789
 31
0.0
  0
LINE
  5
2CC
330
2A4
100
AcDbEntity
  8
Bordo_0
100
AcDbLine
 10
140.0
 20
10.0
 30
0.0
 11
140.0
 21
6.100000143051147
 31
0.0
  0
LINE
  5
2CD
330
2A4
100
AcDbEntity
  8
Bordo_0
100
AcDbLine
 10
140.0
 20
287.0000076293946
 30
0.0
 11
140.0
 21
290.9000015258789
 31
0.0
  0
LINE
  5
2CE
330
2A4
100
AcDbEntity
  8
Bordo_0
100
AcDbLine
 10
280.0
 20
10.0
 30
0.0
 11
280.0
 21
6.100000143051147
 31
0.0
  0
LINE
  5
2CF
330
2A4
100
AcDbEntity
  8
Bordo_0
100
AcDbLine
 10
280.0
 20
287.0000076293946
 30
0.0
 11
280.0
 21
290.9000015258789
 31
0.0
  0
LINE
  5
2D0
330
2A4
100
AcDbEntity
  8
Bordo_0
100
AcDbLine
 10
350.0
 20
10.0
 30
0.0
 11
350.0
 21
6.100000143051147
 31
0.0
  0
LINE
  5
2D1
330
2A4
100
AcDbEntity
  8
Bordo_0
100
AcDbLine
 10
350.0
 20
287.0000076293946
 30
0.0
 11
350.0
 21
290.9000015258789
 31
0.0
  0
MTEXT
  5
2D2
330
2A4
100
AcDbEntity
  8
Bordo_2
100
AcDbMText
 10
384.1980168835889
 20
287.4
 30
0.0
 40
3.499999940395355
 41
0.0
 71
     7
 72
     1
  1
1
  7
Bordo_1
 73
     1
 44
1.0
1001
ACAD
1000
MTEXTBEGIN
1070
    73
1070
     1
1070
    44
1040
1.0
1070
    74
1070
     0
1000
MTEXTEND
  0
MTEXT
  5
2D3
330
2A4
100
AcDbEntity
  8
Bordo_2
100
AcDbMText
 10
384.1980168835889
 20
6.100000059604644
 30
0.0
 40
3.499999940395355
 41
0.0
 71
     7
 72
     1
  1
1
  7
Bordo_1
 73
     1
 44
1.0
1001
ACAD
1000
MTEXTBEGIN
1070
    73
1070
     1
1070
    44
1040
1.0
1070
    74
1070
     0
1000
MTEXTEND
  0
MTEXT
  5
2D4
330
2A4
100
AcDbEntity
  8
Bordo_2
100
AcDbMText
 10
313.7892158440201
 20
287.4
 30
0.0
 40
3.499999940395355
 41
0.0
 71
     7
 72
     1
  1
2
  7
Bordo_1
 73
     1
 44
1.0
1001
ACAD
1000
MTEXTBEGIN
1070
    73
1070
     1
1070
    44
1040
1.0
1070
    74
1070
     0
1000
MTEXTEND
  0
MTEXT
  5
2D5
330
2A4
100
AcDbEntity
  8
Bordo_2
100
AcDbMText
 10
313.7892158440201
 20
6.100000059604644
 30
0.0
 40
3.499999940395355
 41
0.0
 71
     7
 72
     1
  1
2
  7
Bordo_1
 73
     1
 44
1.0
1001
ACAD
1000
MTEXTBEGIN
1070
    73
1070
     1
1070
    44
1040
1.0
1070
    74
1070
     0
1000
MTEXTEND
  0
MTEXT
  5
2D6
330
2A4
100
AcDbEntity
  8
Bordo_2
100
AcDbMText
 10
243.8564160149081
 20
287.3413109757006
 30
0.0
 40
3.499999940395355
 41
0.0
 71
     7
 72
     1
  1
3
  7
Bordo_1
 73
     1
 44
1.0
1001
ACAD
1000
MTEXTBEGIN
1070
    73
1070
     1
1070
    44
1040
1.0
1070
    74
1070
     0
1000
MTEXTEND
  0
MTEXT
  5
2D7
330
2A4
100
AcDbEntity
  8
Bordo_2
100
AcDbMText
 10
243.8564160149081
 20
6.041311035305261
 30
0.0
 40
3.499999940395355
 41
0.0
 71
     7
 72
     1
  1
3
  7
Bordo_1
 73
     1
 44
1.0
1001
ACAD
1000
MTEXTBEGIN
1070
    73
1070
     1
1070
    44
1040
1.0
1070
    74
1070
     0
1000
MTEXTEND
  0
MTEXT
  5
2D8
330
2A4
100
AcDbEntity
  8
Bordo_2
100
AcDbMText
 10
173.70521563041
 20
287.4
 30
0.0
 40
3.499999940395355
 41
0.0
 71
     7
 72
     1
  1
4
  7
Bordo_1
 73
     1
 44
1.0
1001
ACAD
1000
MTEXTBEGIN
1070
    73
1070
     1
1070
    44
1040
1.0
1070
    74
1070
     0
1000
MTEXTEND
  0
MTEXT
  5
2D9
330
2A4
100
AcDbEntity
  8
Bordo_2
100
AcDbMText
 10
173.70521563041
 20
6.100000059604644
 30
0.0
 40
3.499999940395355
 41
0.0
 71
     7
 72
     1
  1
4
  7
Bordo_1
 73
     1
 44
1.0
1001
ACAD
1000
MTEXTBEGIN
1070
    73
1070
     1
1070
    44
1040
1.0
1070
    74
1070
     0
1000
MTEXTEND
  0
MTEXT
  5
2DA
330
2A4
100
AcDbEntity
  8
Bordo_2
100
AcDbMText
 10
103.8536160077878
 20
287.3413109757006
 30
0.0
 40
3.499999940395355
 41
0.0
 71
     7
 72
     1
  1
5
  7
Bordo_1
 73
     1
 44
1.0
1001
ACAD
1000
MTEXTBEGIN
1070
    73
1070
     1
1070
    44
1040
1.0
1070
    74
1070
     0
1000
MTEXTEND
  0
MTEXT
  5
2DB
330
2A4
100
AcDbEntity
  8
Bordo_2
100
AcDbMText
 10
103.8536160077878
 20
6.041311035305261
 30
0.0
 40
3.499999940395355
 41
0.0
 71
     7
 72
     1
  1
5
  7
Bordo_1
 73
     1
 44
1.0
1001
ACAD
1000
MTEXTBEGIN
1070
    73
1070
     1
1070
    44
1040
1.0
1070
    74
1070
     0
1000
MTEXTEND
  0
MTEXT
  5
2DC
330
2A4
100
AcDbEntity
  8
Bordo_2
100
AcDbMText
 10
33.83401595794546
 20
287.3413109757006
 30
0.0
 40
3.499999940395355
 41
0.0
 71
     7
 72
     1
  1
6
  7
Bordo_1
 73
     1
 44
1.0
1001
ACAD
1000
MTEXTBEGIN
1070
    73
1070
     1
1070
    44
1040
1.0
1070
    74
1070
     0
1000
MTEXTEND
  0
MTEXT
  5
2DD
330
2A4
100
AcDbEntity
  8
Bordo_2
100
AcDbMText
 10
33.83401595794546
 20
6.041311035305261
 30
0.0
 40
3.499999940395355
 41
0.0
 71
     7
 72
     1
  1
6
  7
Bordo_1
 73
     1
 44
1.0
1001
ACAD
1000
MTEXTBEGIN
1070
    73
1070
     1
1070
    44
1040
1.0
1070
    74
1070
     0
1000
MTEXTEND
  0
LINE
  5
2DE
330
2A4
100
AcDbEntity
  8
Bordo_0
100
AcDbLine
 10
10.0
 20
74.25000190734863
 30
0.0
 11
6.100000143051147
 21
74.25000190734863
 31
0.0
  0
LINE
  5
2DF
330
2A4
100
AcDbEntity
  8
Bordo_0
100
AcDbLine
 10
410.0
 20
74.25000190734863
 30
0.0
 11
413.8999938964843
 21
74.25000190734863
 31
0.0
  0
LINE
  5
2E0
330
2A4
100
AcDbEntity
  8
Bordo_0
100
AcDbLine
 10
10.0
 20
222.7499961853027
 30
0.0
 11
6.100000143051147
 21
222.7499961853027
 31
0.0
  0
LINE
  5
2E1
330
2A4
100
AcDbEntity
  8
Bordo_0
100
AcDbLine
 10
410.0
 20
222.7499961853027
 30
0.0
 11
413.8999938964843
 21
222.7499961853027
 31
0.0
  0
MTEXT
  5
2E2
330
2A4
100
AcDbEntity
  8
Bordo_2
100
AcDbMText
 10
6.206442621438576
 20
35.37500002980233
 30
0.0
 40
3.499999940395355
 41
0.0
 71
     7
 72
     1
  1
A
  7
Bordo_1
 73
     1
 44
1.0
1001
ACAD
1000
MTEXTBEGIN
1070
    73
1070
     1
1070
    44
1040
1.0
1070
    74
1070
     0
1000
MTEXTEND
  0
MTEXT
  5
2E3
330
2A4
100
AcDbEntity
  8
Bordo_2
100
AcDbMText
 10
410.5064425618338
 20
35.37500002980233
 30
0.0
 40
3.499999940395355
 41
0.0
 71
     7
 72
     1
  1
A
  7
Bordo_1
 73
     1
 44
1.0
1001
ACAD
1000
MTEXTBEGIN
1070
    73
1070
     1
1070
    44
1040
1.0
1070
    74
1070
     0
1000
MTEXTEND
  0
MTEXT
  5
2E4
330
2A4
100
AcDbEntity
  8
Bordo_2
100
AcDbMText
 10
6.593912902519599
 20
109.6250000298023
 30
0.0
 40
3.499999940395355
 41
0.0
 71
     7
 72
     1
  1
B
  7
Bordo_1
 73
     1
 44
1.0
1001
ACAD
1000
MTEXTBEGIN
1070
    73
1070
     1
1070
    44
1040
1.0
1070
    74
1070
     0
1000
MTEXTEND
  0
MTEXT
  5
2E5
330
2A4
100
AcDbEntity
  8
Bordo_2
100
AcDbMText
 10
410.8939128429149
 20
109.6250000298023
 30
0.0
 40
3.499999940395355
 41
0.0
 71
     7
 72
     1
  1
B
  7
Bordo_1
 73
     1
 44
1.0
1001
ACAD
1000
MTEXTBEGIN
1070
    73
1070
     1
1070
    44
1040
1.0
1070
    74
1070
     0
1000
MTEXTEND
  0
MTEXT
  5
2E6
330
2A4
100
AcDbEntity
  8
Bordo_2
100
AcDbMText
 10
6.338794476247101
 20
183.8163110055029
 30
0.0
 40
3.499999940395355
 41
0.0
 71
     7
 72
     1
  1
C
  7
Bordo_1
 73
     1
 44
1.0
1001
ACAD
1000
MTEXTBEGIN
1070
    73
1070
     1
1070
    44
1040
1.0
1070
    74
1070
     0
1000
MTEXTEND
  0
MTEXT
  5
2E7
330
2A4
100
AcDbEntity
  8
Bordo_2
100
AcDbMText
 10
410.6387944166424
 20
183.8163110055029
 30
0.0
 40
3.499999940395355
 41
0.0
 71
     7
 72
     1
  1
C
  7
Bordo_1
 73
     1
 44
1.0
1001
ACAD
1000
MTEXTBEGIN
1070
    73
1070
     1
1070
    44
1040
1.0
1070
    74
1070
     0
1000
MTEXTEND
  0
MTEXT
  5
2E8
330
2A4
100
AcDbEntity
  8
Bordo_2
100
AcDbMText
 10
6.478794832263828
 20
258.1250000298023
 30
0.0
 40
3.499999940395355
 41
0.0
 71
     7
 72
     1
  1
D
  7
Bordo_1
 73
     1
 44
1.0
1001
ACAD
1000
MTEXTBEGIN
1070
    73
1070
     1
1070
    44
1040
1.0
1070
    74
1070
     0
1000
MTEXTEND
  0
MTEXT
  5
2E9
330
2A4
100
AcDbEntity
  8
Bordo_2
100
AcDbMText
 10
410.7787947726591
 20
258.1250000298023
 30
0.0
 40
3.499999940395355
 41
0.0
 71
     7
 72
     1
  1
D
  7
Bordo_1
 73
     1
 44
1.0
1001
ACAD
1000
MTEXTBEGIN
1070
    73
1070
     1
1070
    44
1040
1.0
1070
    74
1070
     0
1000
MTEXTEND
  0
ENDBLK
  5
2A6
330
2A4
100
AcDbEntity
  8
0
100
AcDbBlockEnd
  0
BLOCK
  5
3A2
330
3A1
100
AcDbEntity
  8
0
100
AcDbBlockBegin
  2
Cartigli COMUNELLO
 70
     2
 10
0.0
 20
0.0
 30
0.0
  3
Cartigli COMUNELLO
  1

  0
HATCH
  5
3B0
330
3A1
100
AcDbEntity
  8
Tratteggio
 62
     7
100
AcDbHatch
 10
0.0
 20
0.0
 30
0.0
210
0.0
220
0.0
230
1.0
  2
SOLID
 70
     1
 71
     0
 91
        2
 92
        0
 93
        6
 72
     1
 10
13.50007588364672
 20
19.89302050081428
 11
30.89993084866332
 21
19.89302050081416
 72
     1
 10
30.89993084866332
 20
19.89302050081416
 11
30.89993084866332
 21
23.04299424448097
 72
     1
 10
30.89993084866332
 20
23.04299424448097
 11
27.77220960581477
 21
23.04299424448103
 72
     2
 10
22.20000336615506
 20
37.30358966223789
 40
15.31058666564578
 50
68.65735037136855
 51
111.3426496286315
 73
     0
 72
     1
 10
16.62779712649531
 20
23.04299424448104
 11
13.50007588364672
 21
23.04299424448097
 72
     1
 10
13.50007588364672
 20
23.04299424448097
 11
13.50007588364672
 21
19.89302050081428
 97
        0
 92
        1
 93
        6
 72
     1
 10
32.69991584504435
 20
18.09303550443317
 11
32.69991584504435
 21
24.84297924086209
 72
     1
 10
32.69991584504435
 20
24.84297924086208
 11
27.42202839407664
 21
24.84297924086206
 72
     2
 10
22.20000336615506
 20
37.30358966223789
 40
13.51060166926475
 50
67.26229019813374
 51
112.7377098018664
 73
     0
 72
     1
 10
16.97797833823344
 20
24.84297924086206
 11
11.70009088726569
 21
24.84297924086208
 72
     1
 10
11.70009088726569
 20
24.84297924086208
 11
11.70009088726569
 21
18.09303550443317
 72
     1
 10
11.70009088726569
 20
18.09303550443317
 11
32.69991584504435
 21
18.09303550443317
 97
        0
 75
     0
 76
     1
 98
        1
 10
0.0
 20
0.0
  0
HATCH
  5
3B9
330
3A1
100
AcDbEntity
  8
Tratteggio
 62
     7
100
AcDbHatch
 10
0.0
 20
0.0
 30
0.0
210
0.0
220
0.0
230
1.0
  2
SOLID
 70
     1
 71
     0
 91
        1
 92
        1
 93
        8
 72
     1
 10
95.05771295395282
 20
26.74999998775002
 11
27.77386600155343
 21
26.74999998775007
 72
     2
 10
22.20000336615506
 20
39.84359466344421
 40
14.23060667047108
 50
66.94084417726135
 51
113.0591558227387
 73
     0
 72
     1
 10
16.62614073075666
 20
26.74999998775004
 11
10.0
 21
26.74999998775003
 72
     1
 10
10.0
 20
26.74999998775003
 11
10.00000000000025
 21
26.24999998775003
 72
     1
 10
10.00000000000025
 20
26.24999998775003
 11
16.52506224989093
 21
26.24999998775001
 72
     2
 10
22.20000336615506
 20
39.84359466344421
 40
14.73060667047108
 50
247.3408443660875
 51
292.6591556339125
 73
     1
 72
     1
 10
27.87494448241919
 20
26.24999998775003
 11
95.05771295395282
 21
26.24999998775003
 72
     1
 10
95.05771295395282
 20
26.24999998775003
 11
95.05771295395282
 21
26.74999998775002
 97
        0
 75
     0
 76
     1
 98
        1
 10
0.0
 20
0.0
  0
HATCH
  5
3C6
330
3A1
100
AcDbEntity
  8
Tratteggio
 62
     7
100
AcDbHatch
 10
0.0
 20
0.0
 30
0.0
210
0.0
220
0.0
230
1.0
  2
SOLID
 70
     1
 71
     0
 91
        2
 92
        0
 93
        6
 72
     1
 10
30.90009088726564
 20
32.93297924086207
 11
30.90009088726564
 21
29.78297924086208
 72
     1
 10
30.90009088726564
 20
29.78297924086208
 11
26.91257430898715
 21
29.78297924086208
 72
     2
 10
22.20009088726563
 20
39.83297924086207
 40
11.1
 50
64.87793981336809
 51
115.1220601866318
 73
     0
 72
     1
 10
17.48760746554413
 20
29.78297924086206
 11
13.50009088726564
 21
29.78297924086206
 72
     1
 10
13.50009088726564
 20
29.78297924086206
 11
13.50009088726564
 21
32.93297924086207
 72
     1
 10
13.50009088726564
 20
32.93297924086207
 11
30.90009088726564
 21
32.93297924086207
 97
        0
 92
        1
 93
        6
 72
     1
 10
11.70009088726567
 20
34.7329792408621
 11
32.70009088726567
 21
34.73297924086214
 72
     1
 10
32.70009088726567
 20
34.73297924086214
 11
32.70009088726565
 21
27.98297924086213
 72
     1
 10
32.70009088726565
 20
27.98297924086213
 11
27.30247474189664
 21
27.98297924086202
 72
     2
 10
22.20009088726567
 20
39.84297924086207
 40
12.911
 50
66.72176127080208
 51
113.2782387291978
 73
     0
 72
     1
 10
17.09770703263471
 20
27.98297924086201
 11
11.70009088726569
 21
27.98297924086199
 72
     1
 10
11.70009088726569
 20
27.98297924086199
 11
11.70009088726567
 21
34.7329792408621
 97
        0
 75
     0
 76
     1
 98
        1
 10
0.0
 20
0.0
  0
LINE
  5
3C7
330
3A1
100
AcDbEntity
  8
Geometria schizzo(ISO)
  6
Continuous
 62
     7
370
    50
100
AcDbLine
 10
200.0
 20
67.5
 30
0.0
 11
10.0
 21
67.5
 31
0.0
  0
LINE
  5
3C8
330
3A1
100
AcDbEntity
  8
Geometria schizzo(ISO)
  6
Continuous
 62
     7
370
    50
100
AcDbLine
 10
10.0
 20
59.5
 30
0.0
 11
200.0
 21
59.5
 31
0.0
  0
LINE
  5
3C9
330
3A1
100
AcDbEntity
  8
Geometria schizzo(ISO)
  6
Continuous
 62
     7
370
    50
100
AcDbLine
 10
10.0
 20
54.5
 30
0.0
 11
200.0000000000002
 21
54.5
 31
0.0
  0
LINE
  5
3CA
330
3A1
100
AcDbEntity
  8
Geometria schizzo(ISO)
  6
Continuous
 62
     7
370
    50
100
AcDbLine
 10
9.999999999999998
 20
46.49999997550015
 30
0.0
 11
200.0000000000002
 21
46.49999997550015
 31
0.0
  0
LINE
  5
3CB
330
3A1
100
AcDbEntity
  8
Geometria schizzo(ISO)
  6
Continuous
 62
     7
370
    50
100
AcDbLine
 10
10.0
 20
38.49999997550006
 30
0.0
 11
200.0000000000002
 21
38.49999997550006
 31
0.0
  0
LINE
  5
3CC
330
3A1
100
AcDbEntity
  8
Geometria schizzo(ISO)
  6
Continuous
 62
     7
370
    50
100
AcDbLine
 10
10.0
 20
14.5
 30
0.0
 11
200.0
 21
14.5
 31
0.0
  0
LINE
  5
3CD
330
3A1
100
AcDbEntity
  8
Geometria schizzo(ISO)
  6
Continuous
 62
     7
370
    50
100
AcDbLine
 10
10.0
 20
10.0
 30
0.0
 11
200.0
 21
10.0
 31
0.0
  0
LINE
  5
3CE
330
3A1
100
AcDbEntity
  8
Geometria schizzo(ISO)
  6
Continuous
 62
     7
370
    50
100
AcDbLine
 10
126.5003211145929
 20
30.50000000000001
 30
0.0
 11
200.0
 21
30.50000000000001
 31
0.0
  0
LINE
  5
3CF
330
3A1
100
AcDbEntity
  8
Geometria schizzo(ISO)
  6
Continuous
 62
     7
370
    50
100
AcDbLine
 10
126.5003211145929
 20
22.5
 30
0.0
 11
200.0
 21
22.5
 31
0.0
  0
LINE
  5
3D0
330
3A1
100
AcDbEntity
  8
Geometria schizzo(ISO)
  6
Continuous
 62
     7
370
    50
100
AcDbLine
 10
10.0
 20
10.0
 30
0.0
 11
9.999999999999998
 21
67.5
 31
0.0
  0
LINE
  5
3D1
330
3A1
100
AcDbEntity
  8
Geometria schizzo(ISO)
  6
Continuous
 62
     7
370
    50
100
AcDbLine
 10
82.71476190476196
 20
67.5
 30
0.0
 11
82.71476190476199
 21
38.49999997550006
 31
0.0
  0
LINE
  5
3D2
330
3A1
100
AcDbEntity
  8
Geometria schizzo(ISO)
  6
Continuous
 62
     7
370
    50
100
AcDbLine
 10
34.23825396825403
 20
46.49999997550015
 30
0.0
 11
34.23825396825403
 21
38.49999997550006
 31
0.0
  0
LINE
  5
3D3
330
3A1
100
AcDbEntity
  8
Geometria schizzo(ISO)
  6
Continuous
 62
     7
370
    50
100
AcDbLine
 10
58.47650793650799
 20
46.49999997550015
 30
0.0
 11
58.47650793650799
 21
38.49999997550003
 31
0.0
  0
LINE
  5
3D4
330
3A1
100
AcDbEntity
  8
Geometria schizzo(ISO)
  6
Continuous
 62
     7
370
    50
100
AcDbLine
 10
111.6495238095238
 20
67.5
 30
0.0
 11
111.6495238095238
 21
38.4999999755002
 31
0.0
  0
LINE
  5
3D5
330
3A1
100
AcDbEntity
  8
Geometria schizzo(ISO)
  6
Continuous
 62
     7
370
    50
100
AcDbLine
 10
126.5003211145929
 20
46.49999997550015
 30
0.0
 11
126.5003211145929
 21
14.5
 31
0.0
  0
LINE
  5
3D6
330
3A1
100
AcDbEntity
  8
Geometria schizzo(ISO)
  6
Continuous
 62
     7
370
    50
100
AcDbLine
 10
159.8068536898258
 20
46.49999997550015
 30
0.0
 11
159.8068536898258
 21
22.5
 31
0.0
  0
LINE
  5
3D7
330
3A1
100
AcDbEntity
  8
Geometria schizzo(ISO)
  6
Continuous
 62
     7
370
    50
100
AcDbLine
 10
176.9329761904763
 20
67.5
 30
0.0
 11
176.9329761904763
 21
22.5
 31
0.0
  0
LINE
  5
3D8
330
3A1
100
AcDbEntity
  8
Geometria schizzo(ISO)
  6
Continuous
 62
     7
370
    50
100
AcDbLine
 10
200.0
 20
67.5
 30
0.0
 11
200.0
 21
10.0
 31
0.0
  0
LINE
  5
3D9
330
3A1
100
AcDbEntity
  8
Geometria schizzo(ISO)
  6
Continuous
 62
     7
370
    50
100
AcDbLine
 10
32.69991584504435
 20
18.09303550443317
 30
0.0
 11
32.69991584504435
 21
24.84297924086208
 31
0.0
  0
LINE
  5
3DA
330
3A1
100
AcDbEntity
  8
Geometria schizzo(ISO)
  6
Continuous
 62
     7
370
    50
100
AcDbLine
 10
30.89993084866332
 20
19.89302050081416
 30
0.0
 11
30.89993084866332
 21
23.04299424448097
 31
0.0
  0
LINE
  5
3DB
330
3A1
100
AcDbEntity
  8
Geometria schizzo(ISO)
  6
Continuous
 62
     7
370
    50
100
AcDbLine
 10
11.70009088726569
 20
18.09303550443317
 30
0.0
 11
11.70009088726569
 21
24.84297924086208
 31
0.0
  0
LINE
  5
3DC
330
3A1
100
AcDbEntity
  8
Geometria schizzo(ISO)
  6
Continuous
 62
     7
370
    50
100
AcDbLine
 10
13.50007588364672
 20
19.89302050081428
 30
0.0
 11
13.50007588364672
 21
23.04299424448097
 31
0.0
  0
LINE
  5
3DD
330
3A1
100
AcDbEntity
  8
Geometria schizzo(ISO)
  6
Continuous
 62
     7
370
    50
100
AcDbLine
 10
32.69991584504435
 20
18.09303550443317
 30
0.0
 11
11.70009088726569
 21
18.09303550443317
 31
0.0
  0
LINE
  5
3DE
330
3A1
100
AcDbEntity
  8
Geometria schizzo(ISO)
  6
Continuous
 62
     7
370
    50
100
AcDbLine
 10
30.89993084866332
 20
19.89302050081416
 30
0.0
 11
13.50007588364672
 21
19.89302050081428
 31
0.0
  0
ARC
  5
3DF
330
3A1
100
AcDbEntity
  8
Geometria schizzo(ISO)
  6
Continuous
 62
     7
370
    50
100
AcDbCircle
 10
22.20000336615506
 20
37.30358966223789
 30
0.0
 40
15.31058666564578
100
AcDbArc
 50
248.6573503713684
 51
291.3426496286315
  0
ARC
  5
3E0
330
3A1
100
AcDbEntity
  8
Geometria schizzo(ISO)
  6
Continuous
 62
     7
370
    50
100
AcDbCircle
 10
22.20000336615506
 20
37.30358966223789
 30
0.0
 40
13.51060166926475
100
AcDbArc
 50
247.2622901981336
 51
292.7377098018663
  0
LINE
  5
3E1
330
3A1
100
AcDbEntity
  8
Geometria schizzo(ISO)
  6
Continuous
 62
     7
370
    50
100
AcDbLine
 10
11.70009088726569
 20
24.84297924086208
 30
0.0
 11
16.97797833823344
 21
24.84297924086206
 31
0.0
  0
LINE
  5
3E2
330
3A1
100
AcDbEntity
  8
Geometria schizzo(ISO)
  6
Continuous
 62
     7
370
    50
100
AcDbLine
 10
13.50007588364672
 20
23.04299424448097
 30
0.0
 11
16.62779712649531
 21
23.04299424448104
 31
0.0
  0
LINE
  5
3E3
330
3A1
100
AcDbEntity
  8
Geometria schizzo(ISO)
  6
Continuous
 62
     7
370
    50
100
AcDbLine
 10
27.42202839407664
 20
24.84297924086206
 30
0.0
 11
32.69991584504435
 21
24.84297924086208
 31
0.0
  0
LINE
  5
3E4
330
3A1
100
AcDbEntity
  8
Geometria schizzo(ISO)
  6
Continuous
 62
     7
370
    50
100
AcDbLine
 10
27.77220960581477
 20
23.04299424448103
 30
0.0
 11
30.89993084866332
 21
23.04299424448097
 31
0.0
  0
LINE
  5
3E5
330
3A1
100
AcDbEntity
  8
Geometria schizzo(ISO)
  6
Continuous
 62
     7
370
    50
100
AcDbLine
 10
95.05771295395282
 20
26.74999998775002
 30
0.0
 11
95.05771295395282
 21
26.24999998775003
 31
0.0
  0
LINE
  5
3E6
330
3A1
100
AcDbEntity
  8
Geometria schizzo(ISO)
  6
Continuous
 62
     7
370
    50
100
AcDbLine
 10
16.62614073075666
 20
26.74999998775004
 30
0.0
 11
10.0
 21
26.74999998775003
 31
0.0
  0
ARC
  5
3E7
330
3A1
100
AcDbEntity
  8
Geometria schizzo(ISO)
  6
Continuous
 62
     7
370
    50
100
AcDbCircle
 10
22.20000336615506
 20
39.84359466344421
 30
0.0
 40
14.23060667047107
100
AcDbArc
 50
246.9408441772613
 51
293.0591558227387
  0
LINE
  5
3E8
330
3A1
100
AcDbEntity
  8
Geometria schizzo(ISO)
  6
Continuous
 62
     7
370
    50
100
AcDbLine
 10
27.77386600155342
 20
26.74999998775007
 30
0.0
 11
95.05771295395282
 21
26.74999998775002
 31
0.0
  0
LINE
  5
3E9
330
3A1
100
AcDbEntity
  8
Geometria schizzo(ISO)
  6
Continuous
 62
     7
370
    50
100
AcDbLine
 10
27.87494448241919
 20
26.24999998775003
 30
0.0
 11
95.05771295395282
 21
26.24999998775003
 31
0.0
  0
ARC
  5
3EA
330
3A1
100
AcDbEntity
  8
Geometria schizzo(ISO)
  6
Continuous
 62
     7
370
    50
100
AcDbCircle
 10
22.20000336615506
 20
39.84359466344421
 30
0.0
 40
14.73060667047108
100
AcDbArc
 50
247.3408443660875
 51
292.6591556339125
  0
LINE
  5
3EB
330
3A1
100
AcDbEntity
  8
Geometria schizzo(ISO)
  6
Continuous
 62
     7
370
    50
100
AcDbLine
 10
16.52506224989093
 20
26.24999998775001
 30
0.0
 11
10.00000000000025
 21
26.24999998775003
 31
0.0
  0
LINE
  5
3EC
330
3A1
100
AcDbEntity
  8
Geometria schizzo(ISO)
  6
Continuous
 62
     7
370
    50
100
AcDbLine
 10
10.0
 20
26.74999998775003
 30
0.0
 11
10.00000000000025
 21
26.24999998775003
 31
0.0
  0
LINE
  5
3ED
330
3A1
100
AcDbEntity
  8
Geometria schizzo(ISO)
  6
Continuous
 62
     7
370
    50
100
AcDbLine
 10
70.09301344488737
 20
40.10977632401654
 30
0.0
 11
70.06166132979082
 21
45.19999997550015
 31
0.0
  0
LINE
  5
3EE
330
3A1
100
AcDbEntity
  8
Geometria schizzo(ISO)
  6
Continuous
 62
     7
370
    50
100
AcDbLine
 10
62.715217801343
 20
44.2999999755001
 30
0.0
 11
70.06166132979082
 21
45.19999997550015
 31
0.0
  0
LINE
  5
3EF
330
3A1
100
AcDbEntity
  8
Geometria schizzo(ISO)
  6
Continuous
 62
     7
370
    50
100
AcDbLine
 10
62.715217801343
 20
40.69999997550009
 30
0.0
 11
70.09301344488737
 21
40.10977632401654
 31
0.0
  0
LINE
  5
3F0
330
3A1
100
AcDbEntity
  8
Geometria schizzo(ISO)
  6
Continuous
 62
     7
370
    50
100
AcDbLine
 10
62.715217801343
 20
40.69999997550009
 30
0.0
 11
62.715217801343
 21
44.2999999755001
 31
0.0
  0
LINE
  5
3F1
330
3A1
100
AcDbEntity
  8
Geometria schizzo(ISO)
  6
LONG_DASH_DOTTED
 62
     7
 48
25.40819931030274
370
    25
100
AcDbLine
 10
61.89509347490513
 20
42.4999999755001
 30
0.0
 11
79.03957443821731
 21
42.4999999755001
 31
0.0
  0
CIRCLE
  5
3F2
330
3A1
100
AcDbEntity
  8
Geometria schizzo(ISO)
  6
Continuous
 62
     7
370
    50
100
AcDbCircle
 10
75.61970665301604
 20
42.4999999755001
 30
0.0
 40
2.835161292266829
  0
CIRCLE
  5
3F3
330
3A1
100
AcDbEntity
  8
Geometria schizzo(ISO)
  6
Continuous
 62
     7
370
    50
100
AcDbCircle
 10
75.61970665301604
 20
42.4999999755001
 30
0.0
 40
1.8
  0
LINE
  5
3F4
330
3A1
100
AcDbEntity
  8
Geometria schizzo(ISO)
  6
DASH_DOT
 62
     7
 48
25.41209030151367
370
    25
100
AcDbLine
 10
75.61970665301604
 20
45.98912961192912
 30
0.0
 11
75.61970665301604
 21
39.01126421122319
 31
0.0
  0
LINE
  5
3F5
330
3A1
100
AcDbEntity
  8
Geometria schizzo(ISO)
100
AcDbLine
 10
13.50009088726564
 20
32.93297924086207
 30
0.0
 11
30.90009088726564
 21
32.93297924086207
 31
0.0
  0
LINE
  5
3F6
330
3A1
100
AcDbEntity
  8
Geometria schizzo(ISO)
100
AcDbLine
 10
30.90009088726564
 20
32.93297924086207
 30
0.0
 11
30.90009088726564
 21
29.78297924086208
 31
0.0
  0
LINE
  5
3F7
330
3A1
100
AcDbEntity
  8
Geometria schizzo(ISO)
100
AcDbLine
 10
30.90009088726564
 20
29.78297924086208
 30
0.0
 11
26.91257430898715
 21
29.78297924086208
 31
0.0
  0
LINE
  5
3F8
330
3A1
100
AcDbEntity
  8
Geometria schizzo(ISO)
100
AcDbLine
 10
13.50009088726564
 20
32.93297924086207
 30
0.0
 11
13.50009088726564
 21
29.78297924086206
 31
0.0
  0
LINE
  5
3F9
330
3A1
100
AcDbEntity
  8
Geometria schizzo(ISO)
100
AcDbLine
 10
13.50009088726564
 20
29.78297924086206
 30
0.0
 11
17.48760746554413
 21
29.78297924086206
 31
0.0
  0
ARC
  5
3FA
330
3A1
100
AcDbEntity
  8
Geometria schizzo(ISO)
100
AcDbCircle
 10
22.20009088726563
 20
39.83297924086207
 30
0.0
 40
11.1
100
AcDbArc
 50
244.8779398133681
 51
295.122060186632
  0
LINE
  5
3FB
330
3A1
100
AcDbEntity
  8
Geometria schizzo(ISO)
100
AcDbLine
 10
11.70009088726567
 20
34.7329792408621
 30
0.0
 11
32.70009088726567
 21
34.73297924086214
 31
0.0
  0
LINE
  5
3FC
330
3A1
100
AcDbEntity
  8
Geometria schizzo(ISO)
100
AcDbLine
 10
32.70009088726567
 20
34.73297924086214
 30
0.0
 11
32.70009088726565
 21
27.98297924086213
 31
0.0
  0
LINE
  5
3FD
330
3A1
100
AcDbEntity
  8
Geometria schizzo(ISO)
100
AcDbLine
 10
32.70009088726565
 20
27.98297924086213
 30
0.0
 11
27.30247474189664
 21
27.98297924086202
 31
0.0
  0
LINE
  5
3FE
330
3A1
100
AcDbEntity
  8
Geometria schizzo(ISO)
100
AcDbLine
 10
11.70009088726567
 20
34.7329792408621
 30
0.0
 11
11.70009088726569
 21
27.98297924086199
 31
0.0
  0
LINE
  5
3FF
330
3A1
100
AcDbEntity
  8
Geometria schizzo(ISO)
100
AcDbLine
 10
11.70009088726569
 20
27.98297924086199
 30
0.0
 11
17.09770703263471
 21
27.98297924086201
 31
0.0
  0
ARC
  5
400
330
3A1
100
AcDbEntity
  8
Geometria schizzo(ISO)
100
AcDbCircle
 10
22.20009088726567
 20
39.84297924086207
 30
0.0
 40
12.911
100
AcDbArc
 50
246.7217612708022
 51
293.2782387291979
  0
CIRCLE
  5
401
330
3A1
100
AcDbEntity
  8
Geometria schizzo(ISO)
  6
Continuous
370
    25
100
AcDbCircle
 10
94.17107124803315
 20
30.38071944555288
 30
0.0
 40
1.196319387325194
  0
LINE
  5
402
330
3A1
100
AcDbEntity
  8
Geometria schizzo(ISO)
100
AcDbLine
 10
0.0
 20
10.0
 30
0.0
 11
0.0
 21
12.0
 31
0.0
  0
LINE
  5
403
330
3A1
100
AcDbEntity
  8
Geometria schizzo(ISO)
100
AcDbLine
 10
200.0
 20
297.0
 30
0.0
 11
198.0000000000001
 21
297.0
 31
0.0
  0
MTEXT
  5
404
330
3A1
100
AcDbEntity
  8
Simboli(ISO)
 62
    96
100
AcDbMText
 10
46.375
 20
57.00000000000001
 30
0.0
 40
2.489199936389923
 41
72.75
 71
     5
 72
     1
  1
\fArial|b0|i0;\H2.4892;Denominazione
  7
Corrente-ISO
 73
     1
 44
1.0
1001
ACAD
1000
MTEXTBEGIN
1070
    73
1070
     1
1070
    44
1040
1.0
1070
    74
1070
     0
1000
MTEXTEND
  0
MTEXT
  5
405
330
3A1
100
AcDbEntity
  8
Simboli(ISO)
 62
    96
100
AcDbMText
 10
97.25000000000001
 20
57.00000000000001
 30
0.0
 40
2.489199936389923
 41
29.0
 71
     5
 72
     1
  1
\fArial|b0|i0;\H2.4892;Codice Disegno
  7
Corrente-ISO
 73
     1
 44
1.0
1001
ACAD
1000
MTEXTBEGIN
1070
    73
1070
     1
1070
    44
1040
1.0
1070
    74
1070
     0
1000
MTEXTEND
  0
MTEXT
  5
406
330
3A1
100
AcDbEntity
  8
Simboli(ISO)
 62
    96
100
AcDbMText
 10
144.375
 20
57.00000000000001
 30
0.0
 40
2.489199936389923
 41
65.24999999999998
 71
     5
 72
     1
  1
\fArial|b0|i0;\H2.4892;Materiale-UNI
  7
Corrente-ISO
 73
     1
 44
1.0
1001
ACAD
1000
MTEXTBEGIN
1070
    73
1070
     1
1070
    44
1040
1.0
1070
    74
1070
     0
1000
MTEXTEND
  0
MTEXT
  5
407
330
3A1
100
AcDbEntity
  8
Simboli(ISO)
 62
    96
100
AcDbMText
 10
188.5
 20
57.00000000000001
 30
0.0
 40
2.489199936389923
 41
23.00000000000001
 71
     5
 72
     1
  1
\fArial|b0|i0;\H2.4892;Codice Mater.
  7
Corrente-ISO
 73
     1
 44
1.0
1001
ACAD
1000
MTEXTBEGIN
1070
    73
1070
     1
1070
    44
1040
1.0
1070
    74
1070
     0
1000
MTEXTEND
  0
MTEXT
  5
408
330
3A1
100
AcDbEntity
  8
Simboli(ISO)
 62
    96
100
AcDbMText
 10
11.03637498653142
 20
53.62542943640336
 30
0.0
 40
2.489199936389923
 41
0.0
 71
     1
 72
     1
  1
\fArial|b0|i0;\H2.4892;Tolleranze Generali
  7
Corrente-ISO
 73
     1
 44
1.0
1001
ACAD
1000
MTEXTBEGIN
1070
    73
1070
     1
1070
    44
1040
1.0
1070
    74
1070
     0
1000
MTEXTEND
  0
MTEXT
  5
409
330
3A1
100
AcDbEntity
  8
Simboli(ISO)
 62
    96
100
AcDbMText
 10
22.0
 20
45.62331331753725
 30
0.0
 40
2.489199936389923
 41
22.0
 71
     2
 72
     1
  1
\fArial|b0|i0;\H2.4892;Sostituisce il
  7
Corrente-ISO
 73
     1
 44
1.0
1001
ACAD
1000
MTEXTBEGIN
1070
    73
1070
     1
1070
    44
1040
1.0
1070
    74
1070
     0
1000
MTEXTEND
  0
MTEXT
  5
40A
330
3A1
100
AcDbEntity
  8
Simboli(ISO)
 62
    96
100
AcDbMText
 10
46.5
 20
45.57392268569088
 30
0.0
 40
2.489199936389923
 41
23.0
 71
     2
 72
     1
  1
\fArial|b0|i0;\H2.4892;Sostituito dal
  7
Corrente-ISO
 73
     1
 44
1.0
1001
ACAD
1000
MTEXTBEGIN
1070
    73
1070
     1
1070
    44
1040
1.0
1070
    74
1070
     0
1000
MTEXTEND
  0
MTEXT
  5
40B
330
3A1
100
AcDbEntity
  8
Simboli(ISO)
 62
    96
100
AcDbMText
 10
84.0
 20
45.52415962817554
 30
0.0
 40
2.489199936389923
 41
20.0
 71
     1
 72
     1
  1
\fArial|b0|i0;\H2.4892;Scala
  7
Corrente-ISO
 73
     1
 44
1.0
1001
ACAD
1000
MTEXTBEGIN
1070
    73
1070
     1
1070
    44
1040
1.0
1070
    74
1070
     0
1000
MTEXTEND
  0
MTEXT
  5
40C
330
3A1
100
AcDbEntity
  8
Simboli(ISO)
 62
    96
100
AcDbMText
 10
119.2198163354513
 20
45.48687767908593
 30
0.0
 40
2.489199936389923
 41
12.5
 71
     2
 72
     1
  1
\fArial|b0|i0;\H2.4892;Foglio\P 
  7
Corrente-ISO
 73
     2
 44
0.9442214369773864
1001
ACAD
1000
MTEXTBEGIN
1070
    73
1070
     2
1070
    44
1040
0.9442214369773864
1070
    74
1070
     0
1000
MTEXTEND
  0
MTEXT
  5
40D
330
3A1
100
AcDbEntity
  8
Simboli(ISO)
 62
    96
100
AcDbMText
 10
97.44767410410688
 20
52.26743745909543
 30
0.0
 40
2.489199936389923
 41
27.00000000000001
 71
     5
 72
     1
  1
\fArial|b0|i0;\H2.4892;Peso Unit.(Kg)
  7
Corrente-ISO
 73
     1
 44
1.0
1001
ACAD
1000
MTEXTBEGIN
1070
    73
1070
     1
1070
    44
1040
1.0
1070
    74
1070
     0
1000
MTEXTEND
  0
MTEXT
  5
40E
330
3A1
100
AcDbEntity
  8
Simboli(ISO)
 62
    96
100
AcDbMText
 10
113.0
 20
53.52906693798992
 30
0.0
 40
2.489199936389923
 41
41.5
 71
     1
 72
     1
  1
\fArial|b0|i0;\H2.4892;Trattamento
  7
Corrente-ISO
 73
     1
 44
1.0
1001
ACAD
1000
MTEXTBEGIN
1070
    73
1070
     1
1070
    44
1040
1.0
1070
    74
1070
     0
1000
MTEXTEND
  0
MTEXT
  5
40F
330
3A1
100
AcDbEntity
  8
Simboli(ISO)
 62
    96
100
AcDbMText
 10
188.6268379764541
 20
52.23897215805649
 30
0.0
 40
2.489199936389923
 41
21.64389610290527
 71
     5
 72
     1
  1
\fArial|b0|i0;\H2.4892;Coeff.Impiego
  7
Corrente-ISO
 73
     1
 44
1.0
1001
ACAD
1000
MTEXTBEGIN
1070
    73
1070
     1
1070
    44
1040
1.0
1070
    74
1070
     0
1000
MTEXTEND
  0
MTEXT
  5
410
330
3A1
100
AcDbEntity
  8
Simboli(ISO)
 62
    96
100
AcDbMText
 10
127.0
 20
45.54724501095818
 30
0.0
 40
2.489199936389923
 41
32.5
 71
     1
 72
     1
  1
\fArial|b0|i0;\H2.4892;Disegnato
  7
Corrente-ISO
 73
     1
 44
1.0
1001
ACAD
1000
MTEXTBEGIN
1070
    73
1070
     1
1070
    44
1040
1.0
1070
    74
1070
     0
1000
MTEXTEND
  0
MTEXT
  5
411
330
3A1
100
AcDbEntity
  8
Simboli(ISO)
 62
    96
100
AcDbMText
 10
127.1130530408996
 20
37.43473480983361
 30
0.0
 40
2.489199936389923
 41
31.99999999999999
 71
     1
 72
     1
  1
\fArial|b0|i0;\H2.4892;Verificato
  7
Corrente-ISO
 73
     1
 44
1.0
1001
ACAD
1000
MTEXTBEGIN
1070
    73
1070
     1
1070
    44
1040
1.0
1070
    74
1070
     0
1000
MTEXTEND
  0
MTEXT
  5
412
330
3A1
100
AcDbEntity
  8
Simboli(ISO)
 62
    96
100
AcDbMText
 10
127.0565265204498
 20
29.43473480983361
 30
0.0
 40
2.489199936389923
 41
31.99999999999999
 71
     1
 72
     1
  1
\fArial|b0|i0;\H2.4892;Approvato
  7
Corrente-ISO
 73
     1
 44
1.0
1001
ACAD
1000
MTEXTBEGIN
1070
    73
1070
     1
1070
    44
1040
1.0
1070
    74
1070
     0
1000
MTEXTEND
  0
MTEXT
  5
413
330
3A1
100
AcDbEntity
  8
Simboli(ISO)
 62
     7
100
AcDbMText
 10
33.90115953460973
 20
31.79652138804769
 30
0.0
 40
3.50519984960556
 41
58.00000000000001
 71
     1
 72
     1
  1
\fArial Black|b1|i0;\H3.5052;Fratelli Comunello 
  7
Corrente-ISO
 73
     1
 44
1.0
1001
ACAD
1000
MTEXTBEGIN
1070
    73
1070
     1
1070
    44
1040
1.0
1070
    74
1070
     0
1000
MTEXTEND
  0
MTEXT
  5
414
330
3A1
100
AcDbEntity
  8
Simboli(ISO)
 62
     7
100
AcDbMText
 10
83.87549784754645
 20
30.17629441918698
 30
0.0
 40
2.006599903106689
 41
8.000000000000007
 71
     1
 72
     1
  1
\fArial Black|b1|i0;\H2.0066;S.p.A
  7
Corrente-ISO
 73
     1
 44
1.0
1001
ACAD
1000
MTEXTBEGIN
1070
    73
1070
     1
1070
    44
1040
1.0
1070
    74
1070
     0
1000
MTEXTEND
  0
MTEXT
  5
415
330
3A1
100
AcDbEntity
  8
Simboli(ISO)
 62
     7
100
AcDbMText
 10
34.0
 20
24.5
 30
0.0
 40
2.489199936389923
 41
61.00000000000001
 71
     1
 72
     1
  1
\fEuroRoman|b0|i0;\W1.75;\H2.4892;Accessories for fittings
  7
Corrente-ISO
 73
     1
 44
1.0
1001
ACAD
1000
MTEXTBEGIN
1070
    73
1070
     1
1070
    44
1040
1.0
1070
    74
1070
     0
1000
MTEXTEND
  0
MTEXT
  5
416
102
{ACAD_XDICTIONARY
360
667
102
}
330
3A1
100
AcDbEntity
  8
Simboli(ISO)
 62
     7
100
AcDbMText
 10
99.38145982981417
 20
35.34883259221208
 30
0.0
 40
2.006599903106689
 41
27.99999999999999
 71
     1
 72
     1
  1
\fArial|b0|i0;\H2.0066;Via Cassola , 64\P36027 Ros\U+00E0 (VI)\PITALY\PTel.0424/585111\PFax.0424/533417\Pwww.comunello.com
  7
Corrente-ISO
 73
     2
 44
0.9442214965820312
1001
ACAD
1000
MTEXTBEGIN
1070
    73
1070
     2
1070
    44
1040
0.9442214965820312
1070
    74
1070
     0
1000
MTEXTEND
  0
MTEXT
  5
417
330
3A1
100
AcDbEntity
  8
Simboli(ISO)
 62
     7
100
AcDbMText
 10
105.0
 20
12.1031239376365
 30
0.0
 40
2.006599903106689
 41
190.0
 71
     5
 72
     1
  1
\fArial Black|b1|i0;\W0.75;\H2.0066;La Fratelli Comunello S.p.A. si riserva a termini di legge la proprieta' del presente disegno con divieto di riprodurlo o comunicarlo a terzi senza sua autorizzazione
  7
Corrente-ISO
 73
     1
 44
1.0
1001
ACAD
1000
MTEXTBEGIN
1070
    73
1070
     1
1070
    44
1040
1.0
1070
    74
1070
     0
1000
MTEXTEND
  0
MTEXT
  5
418
330
3A1
100
AcDbEntity
  8
Simboli(ISO)
 62
    96
100
AcDbMText
 10
127.0
 20
21.49126132885024
 30
0.0
 40
2.489199936389923
 41
14.0
 71
     1
 72
     1
  1
\fArial|b0|i0;\H2.4892;Nr.Art.
  7
Corrente-ISO
 73
     1
 44
1.0
1001
ACAD
1000
MTEXTBEGIN
1070
    73
1070
     1
1070
    44
1040
1.0
1070
    74
1070
     0
1000
MTEXTEND
  0
MTEXT
  5
419
330
3A1
100
AcDbEntity
  8
Simboli(ISO)
 62
    96
100
AcDbMText
 10
160.1920425734282
 20
45.54306374702739
 30
0.0
 40
2.489199936389923
 41
13.99999999999998
 71
     1
 72
     1
  1
\fArial|b0|i0;\H2.4892;Data
  7
Corrente-ISO
 73
     1
 44
1.0
1001
ACAD
1000
MTEXTBEGIN
1070
    73
1070
     1
1070
    44
1040
1.0
1070
    74
1070
     0
1000
MTEXTEND
  0
MTEXT
  5
41A
330
3A1
100
AcDbEntity
  8
Simboli(ISO)
 62
    96
100
AcDbMText
 10
160.145574392169
 20
37.49970139293061
 30
0.0
 40
2.489199936389923
 41
13.50000000000001
 71
     1
 72
     1
  1
\fArial|b0|i0;\H2.4892;Data
  7
Corrente-ISO
 73
     1
 44
1.0
1001
ACAD
1000
MTEXTBEGIN
1070
    73
1070
     1
1070
    44
1040
1.0
1070
    74
1070
     0
1000
MTEXTEND
  0
MTEXT
  5
41B
330
3A1
100
AcDbEntity
  8
Simboli(ISO)
 62
    96
100
AcDbMText
 10
160.1269413643238
 20
29.66759768010355
 30
0.0
 40
2.489199936389923
 41
11.99999999999999
 71
     1
 72
     1
  1
\fArial|b0|i0;\H2.4892;Data
  7
Corrente-ISO
 73
     1
 44
1.0
1001
ACAD
1000
MTEXTBEGIN
1070
    73
1070
     1
1070
    44
1040
1.0
1070
    74
1070
     0
1000
MTEXTEND
  0
MTEXT
  5
41C
330
3A1
100
AcDbEntity
  8
Simboli(ISO)
 62
    96
100
AcDbMText
 10
188.433042920287
 20
44.22190362458245
 30
0.0
 40
2.489199936389923
 41
21.64389610290527
 71
     5
 72
     1
  1
\fArial|b0|i0;\H2.4892;Attrezzatura 1
  7
Corrente-ISO
 73
     1
 44
1.0
1001
ACAD
1000
MTEXTBEGIN
1070
    73
1070
     1
1070
    44
1040
1.0
1070
    74
1070
     0
1000
MTEXTEND
  0
MTEXT
  5
41D
330
3A1
100
AcDbEntity
  8
Simboli(ISO)
 62
    96
100
AcDbMText
 10
188.0837249836041
 20
36.34533462143185
 30
0.0
 40
2.489199936389923
 41
20.54728269577026
 71
     5
 72
     1
  1
\fArial|b0|i0;\W0.95;\H2.4892;Attrezzatura 2
  7
Corrente-ISO
 73
     1
 44
1.0
1001
ACAD
1000
MTEXTBEGIN
1070
    73
1070
     1
1070
    44
1040
1.0
1070
    74
1070
     0
1000
MTEXTEND
  0
MTEXT
  5
41E
330
3A1
100
AcDbEntity
  8
Simboli(ISO)
 62
    96
100
AcDbMText
 10
188.3141272195963
 20
28.3675383381331
 30
0.0
 40
2.489199936389923
 41
21.64389610290527
 71
     5
 72
     1
  1
\fArial|b0|i0;\H2.4892;Attrezzatura 3
  7
Corrente-ISO
 73
     1
 44
1.0
1001
ACAD
1000
MTEXTBEGIN
1070
    73
1070
     1
1070
    44
1040
1.0
1070
    74
1070
     0
1000
MTEXTEND
  0
MTEXT
  5
41F
330
3A1
100
AcDbEntity
  8
Simboli(ISO)
 62
     7
100
AcDbMText
 10
11.5
 20
50.09709167610179
 30
0.0
 40
2.489199936389923
 41
43.0
 71
     1
 72
     1
  1
\fArial|b0|i0;\H2.4892;UNI EN 22768-m
  7
Corrente-ISO
 73
     1
 44
1.0
1001
ACAD
1000
MTEXTBEGIN
1070
    73
1070
     1
1070
    44
1040
1.0
1070
    74
1070
     0
1000
MTEXTEND
  0
MTEXT
  5
420
330
3A1
100
AcDbEntity
  8
Simboli(ISO)
 62
     7
100
AcDbMText
 10
93.43312134410579
 20
31.15001179156206
 30
0.0
 40
1.49859994649887
 41
0.0
 71
     1
 72
     1
  1
\fArial|b0|i0;\H1.4986;R
  7
Corrente-ISO
 73
     1
 44
1.0
1001
ACAD
1000
MTEXTBEGIN
1070
    73
1070
     1
1070
    44
1040
1.0
1070
    74
1070
     0
1000
MTEXTEND
  0
ATTDEF
  5
422
102
{ACAD_XDICTIONARY
360
474
102
}
330
3A1
100
AcDbEntity
  8
Simboli(ISO)
 62
     7
100
AcDbText
 10
10.79194871400258
 20
64.45781237692007
 30
0.0
 40
2.006599903106689
  1
MONOROTAIA ALLUMINIO
  7
Stile testo6
100
AcDbAttributeDefinition
  3
Denominazione  1
  2
Denominazione__1_001
 70
     0
  0
ATTDEF
  5
423
102
{ACAD_XDICTIONARY
360
477
102
}
330
3A1
100
AcDbEntity
  8
Simboli(ISO)
 62
     7
100
AcDbText
 10
11.0
 20
60.99340009689331
 30
0.0
 40
2.006599903106689
  1

  7
Stile testo6
 11
11.0
 21
63.0
 31
0.0
100
AcDbAttributeDefinition
  3
Denominazione 2
  2
Denominazione_2
 70
     0
 74
     3
  0
ATTDEF
  5
425
102
{ACAD_XDICTIONARY
360
47A
102
}
330
3A1
100
AcDbEntity
  8
Simboli(ISO)
 62
     7
100
AcDbText
 10
86.63128875710814
 20
61.74740007519723
 30
0.0
 40
3.50519984960556
  1
CGA-345-P
 41
0.75
  7
Stile testo135
100
AcDbAttributeDefinition
  3
CODICE DISEGNO
  2
CODICE_DISEGNO_001
 70
     0
  0
ATTDEF
  5
427
102
{ACAD_XDICTIONARY
360
47D
102
}
330
3A1
100
AcDbEntity
  8
Simboli(ISO)
 62
     7
100
AcDbText
 10
125.030296859442
 20
64.24233972190191
 30
0.0
 40
2.006599903106689
  1
ALLUMINIO EN AW-6060 - T66
  7
Stile testo6
100
AcDbAttributeDefinition
  3
Materiale 1
  2
Materiale_1_001
 70
     0
  0
ATTDEF
  5
428
102
{ACAD_XDICTIONARY
360
480
102
}
330
3A1
100
AcDbEntity
  8
Simboli(ISO)
 62
     7
100
AcDbText
 10
144.809961390817
 20
60.49670004844665
 30
0.0
 40
2.006599903106689
  1

  7
Stile testo6
 72
     1
 11
144.809961390817
 21
61.5
 31
0.0
100
AcDbAttributeDefinition
  3
Materiale 2
  2
Materiale_2
 70
     0
 74
     2
  0
ATTDEF
  5
429
102
{ACAD_XDICTIONARY
360
483
102
}
330
3A1
100
AcDbEntity
  8
Simboli(ISO)
 62
     7
100
AcDbText
 10
188.5
 20
62.49670004844666
 30
0.0
 40
2.006599903106689
  1

  7
Stile testo6
 72
     1
 11
188.5
 21
63.5
 31
0.0
100
AcDbAttributeDefinition
  3
CODICE MATERIALE
  2
CODICE_MATERIALE
 70
     0
 74
     2
  0
ATTDEF
  5
42A
102
{ACAD_XDICTIONARY
360
486
102
}
330
3A1
100
AcDbEntity
  8
Simboli(ISO)
 62
     7
100
AcDbText
 10
97.05039695754834
 20
47.24746089643153
 30
0.0
 40
2.489199936389923
  1

  7
Stile testo15
 72
     1
 11
97.05039695754834
 21
48.4920608646265
 31
0.0
100
AcDbAttributeDefinition
  3
PESO UNITARIO KG
  2
PESO_UNITARIO_KG
 70
     0
 74
     2
  0
ATTDEF
  5
42B
102
{ACAD_XDICTIONARY
360
489
102
}
330
3A1
100
AcDbEntity
  8
Simboli(ISO)
 62
     7
100
AcDbText
 10
132.6521050609213
 20
50.99169272765512
 30
0.0
 40
2.489199936389923
  1

  7
Stile testo15
 11
132.6521050609213
 21
53.48089266404504
 31
0.0
100
AcDbAttributeDefinition
  3
TRATTAMENTO 1
  2
TRATTAMENTO_1
 70
     0
 74
     3
  0
ATTDEF
  5
42C
102
{ACAD_XDICTIONARY
360
48C
102
}
330
3A1
100
AcDbEntity
  8
Simboli(ISO)
 62
     7
100
AcDbText
 10
113.0632687693352
 20
47.49849971798101
 30
0.0
 40
2.489199936389923
  1

  7
Stile testo15
 11
113.0632687693352
 21
49.98769965437094
 31
0.0
100
AcDbAttributeDefinition
  3
TRATTAMENTO 2
  2
TRATTAMENTO_2
 70
     0
 74
     3
  0
ATTDEF
  5
42D
102
{ACAD_XDICTIONARY
360
48F
102
}
330
3A1
100
AcDbEntity
  8
Simboli(ISO)
 62
     7
100
AcDbText
 10
188.5523258958931
 20
47.38184462506182
 30
0.0
 40
2.489199936389923
  1

  7
Stile testo15
 72
     1
 11
188.5523258958931
 21
48.62644459325678
 31
0.0
100
AcDbAttributeDefinition
  3
COEFFICIENTE D'IMPEGO
  2
COEFFICIENTE_D'IMPEGO
 70
     0
 74
     2
  0
ATTDEF
  5
42E
102
{ACAD_XDICTIONARY
360
492
102
}
330
3A1
100
AcDbEntity
  8
Simboli(ISO)
 62
     7
100
AcDbText
 10
94.96285653866493
 20
39.75030617108937
 30
0.0
 40
2.489199936389923
  1
1:1
  7
Stile testo15
100
AcDbAttributeDefinition
  3
SCALA
  2
SCALA_001
 70
     0
  0
ATTDEF
  5
42F
102
{ACAD_XDICTIONARY
360
495
102
}
330
3A1
100
AcDbEntity
  8
Simboli(ISO)
 62
     7
100
AcDbText
 10
117.1499420964082
 20
39.17532174801521
 30
0.0
 40
2.489199936389923
  1
A3
  7
Stile testo15
100
AcDbAttributeDefinition
  3
FOGLIO
  2
FOGLIO_001
 70
     0
  0
ATTDEF
  5
430
102
{ACAD_XDICTIONARY
360
498
102
}
330
3A1
100
AcDbEntity
  8
Simboli(ISO)
 62
     7
100
AcDbText
 10
127.2419110570728
 20
38.96665327074095
 30
0.0
 40
2.489199936389923
  1
MOCELLIN A.
  7
Stile testo15
100
AcDbAttributeDefinition
  3
DISEGNATO
  2
DISEGNATO_001
 70
     0
  0
ATTDEF
  5
431
102
{ACAD_XDICTIONARY
360
49B
102
}
330
3A1
100
AcDbEntity
  8
Simboli(ISO)
 62
     7
100
AcDbText
 10
159.4282822172484
 20
39.25540003180504
 30
0.0
 40
2.489199936389923
  1
17/10/2005
  7
Stile testo15
100
AcDbAttributeDefinition
  3
DATA
  2
DATA_001
 70
     0
  0
ATTDEF
  5
432
102
{ACAD_XDICTIONARY
360
49E
102
}
330
3A1
100
AcDbEntity
  8
Simboli(ISO)
 62
     7
100
AcDbText
 10
168.25
 20
31.50540003180504
 30
0.0
 40
2.489199936389923
  1

  7
Stile testo15
 72
     1
 11
168.25
 21
32.75
 31
0.0
100
AcDbAttributeDefinition
  3
DATA
  2
DATA
 70
     0
 74
     2
  0
ATTDEF
  5
433
102
{ACAD_XDICTIONARY
360
4A1
102
}
330
3A1
100
AcDbEntity
  8
Simboli(ISO)
 62
     7
100
AcDbText
 10
168.25
 20
23.50540003180504
 30
0.0
 40
2.489199936389923
  1

  7
Stile testo15
 72
     1
 11
168.25
 21
24.75
 31
0.0
100
AcDbAttributeDefinition
  3
DATA
  2
DATA
 70
     0
 74
     2
  0
ATTDEF
  5
434
102
{ACAD_XDICTIONARY
360
4A4
102
}
330
3A1
100
AcDbEntity
  8
Simboli(ISO)
 62
     7
100
AcDbText
 10
137.8158294861797
 20
19.04984984195285
 30
0.0
 40
2.489199936389923
  1

  7
Stile testo15
 11
137.8158294861797
 21
21.53904977834278
 31
0.0
100
AcDbAttributeDefinition
  3
NUMERO ARTICOLO
  2
NUMERO_ARTICOLO
 70
     0
 74
     3
  0
ATTDEF
  5
435
102
{ACAD_XDICTIONARY
360
4A7
102
}
330
3A1
100
AcDbEntity
  8
Simboli(ISO)
 62
     7
100
AcDbText
 10
127.1848152468796
 20
15.15058891438324
 30
0.0
 40
2.489199936389923
  1

  7
Stile testo15
 11
127.1848152468796
 21
17.63978885077316
 31
0.0
100
AcDbAttributeDefinition
  3
NUMERO ARTICOLO
  2
NUMERO_ARTICOLO
 70
     0
 74
     3
  0
ATTDEF
  5
436
102
{ACAD_XDICTIONARY
360
4AA
102
}
330
3A1
100
AcDbEntity
  8
Simboli(ISO)
 62
     7
100
AcDbText
 10
188.5
 20
39.25540003180504
 30
0.0
 40
2.489199936389923
  1

  7
Stile testo15
 72
     1
 11
188.5
 21
40.5
 31
0.0
100
AcDbAttributeDefinition
  3
ATTREZZAT. 1
  2
ATTREZZAT._1
 70
     0
 74
     2
  0
ATTDEF
  5
437
102
{ACAD_XDICTIONARY
360
4AD
102
}
330
3A1
100
AcDbEntity
  8
Simboli(ISO)
 62
     7
100
AcDbText
 10
188.5
 20
31.25540003180504
 30
0.0
 40
2.489199936389923
  1

  7
Stile testo15
 72
     1
 11
188.5
 21
32.5
 31
0.0
100
AcDbAttributeDefinition
  3
ATTREZZAT.2
  2
ATTREZZAT.2
 70
     0
 74
     2
  0
ATTDEF
  5
438
102
{ACAD_XDICTIONARY
360
4B0
102
}
330
3A1
100
AcDbEntity
  8
Simboli(ISO)
 62
     7
100
AcDbText
 10
188.5
 20
23.25540003180504
 30
0.0
 40
2.489199936389923
  1

  7
Stile testo15
 72
     1
 11
188.5
 21
24.5
 31
0.0
100
AcDbAttributeDefinition
  3
ATTREZZAT.3
  2
ATTREZZAT.3
 70
     0
 74
     2
  0
ATTDEF
  5
439
102
{ACAD_XDICTIONARY
360
4B3
102
}
330
3A1
100
AcDbEntity
  8
Simboli(ISO)
 62
     7
100
AcDbText
 10
22.0
 20
39.75540003180504
 30
0.0
 40
2.489199936389923
  1

  7
Stile testo15
 72
     1
 11
22.0
 21
41.0
 31
0.0
100
AcDbAttributeDefinition
  3
SOSTITUISCE IL
  2
SOSTITUISCE_IL
 70
     0
 74
     2
  0
ATTDEF
  5
43A
102
{ACAD_XDICTIONARY
360
4B6
102
}
330
3A1
100
AcDbEntity
  8
Simboli(ISO)
 62
     7
100
AcDbText
 10
46.5
 20
39.75540003180504
 30
0.0
 40
2.489199936389923
  1

  7
Stile testo15
 72
     1
 11
46.5
 21
41.0
 31
0.0
100
AcDbAttributeDefinition
  3
SOSTITUITO DAL
  2
SOSTITUITO_DAL
 70
     0
 74
     2
  0
ENDBLK
  5
3A3
330
3A1
100
AcDbEntity
  8
0
100
AcDbBlockEnd
  0
ENDSEC
  0
SECTION
  2
ENTITIES
  0
LINE
  5
2EB
330
77
100
AcDbEntity
  8
Spigoli visibili(ISO)
100
AcDbLine
 10
149.7763388239544
 20
174.0340864797994
 30
0.0
 11
148.7763388239544
 21
173.0340864797993
 31
0.0
  0
LINE
  5
2EC
330
77
100
AcDbEntity
  8
Spigoli visibili(ISO)
100
AcDbLine
 10
148.7763388239544
 20
175.0340864797994
 30
0.0
 11
149.7763388239544
 21
174.0340864797994
 31
0.0
  0
LINE
  5
2ED
330
77
100
AcDbEntity
  8
Spigoli visibili(ISO)
100
AcDbLine
 10
202.0263388239544
 20
224.2840864797994
 30
0.0
 11
201.0263388239545
 21
225.2840864797994
 31
0.0
  0
LINE
  5
2EE
330
77
100
AcDbEntity
  8
Spigoli visibili(ISO)
100
AcDbLine
 10
201.0263388239545
 20
214.2840864797994
 30
0.0
 11
202.0263388239544
 21
215.2840864797994
 31
0.0
  0
ARC
  5
2EF
330
77
100
AcDbEntity
  8
Spigoli visibili(ISO)
100
AcDbCircle
 10
180.0263388239544
 20
217.7840864797994
 30
0.0
 40
0.9999999999999964
100
AcDbArc
 50
180.0
 51
270.0
  0
LINE
  5
2F0
330
77
100
AcDbEntity
  8
Spigoli visibili(ISO)
100
AcDbLine
 10
196.0263388239544
 20
216.7840864797994
 30
0.0
 11
180.0263388239544
 21
216.7840864797994
 31
0.0
  0
ARC
  5
2F1
330
77
100
AcDbEntity
  8
Spigoli visibili(ISO)
100
AcDbCircle
 10
196.0263388239545
 20
217.7840864797994
 30
0.0
 40
0.9999999999999975
100
AcDbArc
 50
270.0
 51
0.0
  0
LINE
  5
2F2
330
77
100
AcDbEntity
  8
Spigoli visibili(ISO)
100
AcDbLine
 10
197.0263388239544
 20
221.7840864797993
 30
0.0
 11
197.0263388239544
 21
217.7840864797994
 31
0.0
  0
ARC
  5
2F3
330
77
100
AcDbEntity
  8
Spigoli visibili(ISO)
100
AcDbCircle
 10
196.0263388239544
 20
221.7840864797993
 30
0.0
 40
0.9999999999999964
100
AcDbArc
 50
0.0
 51
90.0
  0
LINE
  5
2F4
330
77
100
AcDbEntity
  8
Spigoli visibili(ISO)
100
AcDbLine
 10
180.0263388239544
 20
222.7840864797994
 30
0.0
 11
196.0263388239544
 21
222.7840864797994
 31
0.0
  0
ARC
  5
2F5
330
77
100
AcDbEntity
  8
Spigoli visibili(ISO)
100
AcDbCircle
 10
180.0263388239544
 20
221.7840864797993
 30
0.0
 40
0.999999999999992
100
AcDbArc
 50
90.0
 51
180.0
  0
LINE
  5
2F6
330
77
100
AcDbEntity
  8
Spigoli visibili(ISO)
100
AcDbLine
 10
179.0263388239544
 20
217.7840864797994
 30
0.0
 11
179.0263388239544
 21
221.7840864797993
 31
0.0
  0
LINE
  5
2F7
330
77
100
AcDbEntity
  8
Spigoli visibili(ISO)
100
AcDbLine
 10
162.1782626126011
 20
217.7840864797994
 30
0.0
 11
161.1354251334089
 21
219.5903339777974
 31
0.0
  0
ARC
  5
2F8
330
77
100
AcDbEntity
  8
Spigoli visibili(ISO)
100
AcDbCircle
 10
162.8674759409778
 20
220.5903339777973
 30
0.0
 40
2.000000000000001
100
AcDbArc
 50
101.5915198294157
 51
210.0000000000005
  0
ARC
  5
2F9
330
77
100
AcDbEntity
  8
Spigoli visibili(ISO)
100
AcDbCircle
 10
164.7763388239543
 20
211.284086479801
 30
0.0
 40
11.49999999999838
100
AcDbArc
 50
89.99999999999912
 51
101.5915198294149
  0
LINE
  5
2FA
330
77
100
AcDbEntity
  8
Spigoli visibili(ISO)
100
AcDbLine
 10
164.7763388239545
 20
222.7840864797994
 30
0.0
 11
175.5263388239544
 21
222.7840864797994
 31
0.0
  0
ARC
  5
2FB
330
77
100
AcDbEntity
  8
Spigoli visibili(ISO)
100
AcDbCircle
 10
175.5263388239544
 20
221.7840864797993
 30
0.0
 40
1.000000000000005
100
AcDbArc
 50
0.0
 51
90.0
  0
LINE
  5
2FC
330
77
100
AcDbEntity
  8
Spigoli visibili(ISO)
100
AcDbLine
 10
176.5263388239544
 20
221.7840864797993
 30
0.0
 11
176.5263388239544
 21
217.7840864797994
 31
0.0
  0
ARC
  5
2FD
330
77
100
AcDbEntity
  8
Spigoli visibili(ISO)
100
AcDbCircle
 10
175.5263388239544
 20
217.7840864797994
 30
0.0
 40
1.000000000000009
100
AcDbArc
 50
270.0
 51
0.0
  0
LINE
  5
2FE
330
77
100
AcDbEntity
  8
Spigoli visibili(ISO)
100
AcDbLine
 10
175.5263388239544
 20
216.7840864797994
 30
0.0
 11
163.91031342017
 21
216.7840864797994
 31
0.0
  0
ARC
  5
2FF
330
77
100
AcDbEntity
  8
Spigoli visibili(ISO)
100
AcDbCircle
 10
163.91031342017
 20
218.7840864797994
 30
0.0
 40
2.000000000000037
100
AcDbArc
 50
209.9999999999995
 51
269.999999999999
  0
ARC
  5
300
330
77
100
AcDbEntity
  8
Spigoli visibili(ISO)
100
AcDbCircle
 10
163.0442880163855
 20
129.7840864797993
 30
0.0
 40
1.000000000000007
100
AcDbArc
 50
90.0
 51
149.9999999999995
  0
LINE
  5
301
330
77
100
AcDbEntity
  8
Spigoli visibili(ISO)
100
AcDbLine
 10
161.6112353535896
 20
129.3019664579149
 30
0.0
 11
162.1782626126011
 21
130.2840864797994
 31
0.0
  0
ARC
  5
302
330
77
100
AcDbEntity
  8
Spigoli visibili(ISO)
100
AcDbCircle
 10
164.2093115649429
 20
127.8019664579149
 30
0.0
 40
2.999999999999998
100
AcDbArc
 50
149.9999999999998
 51
266.3877999612429
  0
ARC
  5
303
330
77
100
AcDbEntity
  8
Spigoli visibili(ISO)
100
AcDbCircle
 10
164.7763388239547
 20
136.7840864798053
 30
0.0
 40
12.00000000000598
100
AcDbArc
 50
266.3877999612434
 51
269.9999999999988
  0
LINE
  5
304
330
77
100
AcDbEntity
  8
Spigoli visibili(ISO)
100
AcDbLine
 10
174.8842032002235
 20
124.7840864797994
 30
0.0
 11
164.7763388239544
 21
124.7840864797993
 31
0.0
  0
ARC
  5
305
330
77
100
AcDbEntity
  8
Spigoli visibili(ISO)
100
AcDbCircle
 10
174.8842032002235
 20
132.7840864797994
 30
0.0
 40
7.999999999999981
100
AcDbArc
 50
270.0
 51
315.0
  0
LINE
  5
306
330
77
100
AcDbEntity
  8
Spigoli visibili(ISO)
100
AcDbLine
 10
182.4908049180217
 20
129.0769796986128
 30
0.0
 11
180.5410574497159
 21
127.127232230307
 31
0.0
  0
ARC
  5
307
330
77
100
AcDbEntity
  8
Spigoli visibili(ISO)
100
AcDbCircle
 10
181.7836981368351
 20
129.7840864797993
 30
0.0
 40
0.9999999999999964
100
AcDbArc
 50
315.0
 51
90.0
  0
LINE
  5
308
330
77
100
AcDbEntity
  8
Spigoli visibili(ISO)
100
AcDbLine
 10
163.0442880163855
 20
130.7840864797993
 30
0.0
 11
181.7836981368351
 21
130.7840864797993
 31
0.0
  0
ARC
  5
309
330
77
100
AcDbEntity
  8
Spigoli visibili(ISO)
100
AcDbCircle
 10
158.2763388239544
 20
212.9340864797994
 30
0.0
 40
0.4999999999999983
100
AcDbArc
 50
180.0
 51
270.0
  0
LINE
  5
30A
330
77
100
AcDbEntity
  8
Spigoli visibili(ISO)
100
AcDbLine
 10
158.2763388239544
 20
212.4340864797994
 30
0.0
 11
158.7763388239544
 21
212.4340864797994
 31
0.0
  0
ARC
  5
30B
330
77
100
AcDbEntity
  8
Spigoli visibili(ISO)
100
AcDbCircle
 10
158.7763388239544
 20
211.9340864797994
 30
0.0
 40
0.4999999999999805
100
AcDbArc
 50
0.0
 51
90.0
  0
LINE
  5
30C
330
77
100
AcDbEntity
  8
Spigoli visibili(ISO)
100
AcDbLine
 10
159.2763388239544
 20
211.9340864797993
 30
0.0
 11
159.2763388239544
 21
181.5340864797994
 31
0.0
  0
ARC
  5
30D
330
77
100
AcDbEntity
  8
Spigoli visibili(ISO)
100
AcDbCircle
 10
156.7763388239544
 20
181.5340864797994
 30
0.0
 40
2.5
100
AcDbArc
 50
270.0
 51
0.0
  0
LINE
  5
30E
330
77
100
AcDbEntity
  8
Spigoli visibili(ISO)
100
AcDbLine
 10
156.7763388239544
 20
179.0340864797994
 30
0.0
 11
153.5763388239544
 21
179.0340864797994
 31
0.0
  0
ARC
  5
30F
330
77
100
AcDbEntity
  8
Spigoli visibili(ISO)
100
AcDbCircle
 10
153.5763388239544
 20
181.5340864797994
 30
0.0
 40
2.500000000000006
100
AcDbArc
 50
180.0
 51
270.0
  0
LINE
  5
310
330
77
100
AcDbEntity
  8
Spigoli visibili(ISO)
100
AcDbLine
 10
151.0763388239544
 20
181.5340864797994
 30
0.0
 11
151.0763388239544
 21
186.5340864797992
 31
0.0
  0
ARC
  5
311
330
77
100
AcDbEntity
  8
Spigoli visibili(ISO)
100
AcDbCircle
 10
316.9169638239504
 20
186.5340864797995
 30
0.0
 40
165.8406249999959
100
AcDbArc
 50
171.3119299225704
 51
180.0
  0
ARC
  5
312
330
77
100
AcDbEntity
  8
Spigoli visibili(ISO)
100
AcDbCircle
 10
153.9678255924479
 20
211.4340864797994
 30
0.0
 40
0.9999999999999875
100
AcDbArc
 50
90.0
 51
171.3119299225715
  0
LINE
  5
313
330
77
100
AcDbEntity
  8
Spigoli visibili(ISO)
100
AcDbLine
 10
153.967825592448
 20
212.4340864797994
 30
0.0
 11
154.7763388239545
 21
212.4340864797994
 31
0.0
  0
ARC
  5
314
330
77
100
AcDbEntity
  8
Spigoli visibili(ISO)
100
AcDbCircle
 10
154.7763388239545
 20
212.9340864797994
 30
0.0
 40
0.4999999999999983
100
AcDbArc
 50
270.0000000000021
 51
0.0
  0
LINE
  5
315
330
77
100
AcDbEntity
  8
Spigoli visibili(ISO)
100
AcDbLine
 10
155.2763388239544
 20
212.9340864797994
 30
0.0
 11
155.2763388239544
 21
212.9973878935971
 31
0.0
  0
ARC
  5
316
330
77
100
AcDbEntity
  8
Spigoli visibili(ISO)
100
AcDbCircle
 10
154.7763388239545
 20
212.9973878935971
 30
0.0
 40
0.4999999999999627
100
AcDbArc
 50
0.0
 51
54.3146652873477
  0
ARC
  5
317
330
77
100
AcDbEntity
  8
Spigoli visibili(ISO)
100
AcDbCircle
 10
156.5263388239545
 20
215.4340864797994
 30
0.0
 40
2.50000000000001
100
AcDbArc
 50
305.6853347126516
 51
234.3146652873476
  0
ARC
  5
318
330
77
100
AcDbEntity
  8
Spigoli visibili(ISO)
100
AcDbCircle
 10
158.2763388239544
 20
212.9973878935971
 30
0.0
 40
0.4999999999999888
100
AcDbArc
 50
125.6853347126555
 51
180.0
  0
LINE
  5
319
330
77
100
AcDbEntity
  8
Spigoli visibili(ISO)
100
AcDbLine
 10
157.7763388239544
 20
212.9973878935971
 30
0.0
 11
157.7763388239544
 21
212.9340864797994
 31
0.0
  0
ARC
  5
31A
330
77
100
AcDbEntity
  8
Spigoli visibili(ISO)
100
AcDbCircle
 10
156.5263388239544
 20
132.6340864797993
 30
0.0
 40
2.499999999999995
100
AcDbArc
 50
125.6853347126528
 51
54.31466528734835
  0
ARC
  5
31B
330
77
100
AcDbEntity
  8
Spigoli visibili(ISO)
100
AcDbCircle
 10
154.7763388239545
 20
135.0707850660016
 30
0.0
 40
0.5000000000000259
100
AcDbArc
 50
305.6853347126532
 51
0.0
  0
LINE
  5
31C
330
77
100
AcDbEntity
  8
Spigoli visibili(ISO)
100
AcDbLine
 10
155.2763388239544
 20
135.0707850660016
 30
0.0
 11
155.2763388239544
 21
135.1340864797993
 31
0.0
  0
ARC
  5
31D
330
77
100
AcDbEntity
  8
Spigoli visibili(ISO)
100
AcDbCircle
 10
154.7763388239545
 20
135.1340864797994
 30
0.0
 40
0.4999999999999805
100
AcDbArc
 50
0.0
 51
90.0
  0
LINE
  5
31E
330
77
100
AcDbEntity
  8
Spigoli visibili(ISO)
100
AcDbLine
 10
154.7763388239545
 20
135.6340864797993
 30
0.0
 11
153.967825592448
 21
135.6340864797993
 31
0.0
  0
ARC
  5
31F
330
77
100
AcDbEntity
  8
Spigoli visibili(ISO)
100
AcDbCircle
 10
153.967825592448
 20
136.6340864797993
 30
0.0
 40
1.0
100
AcDbArc
 50
188.6880700774293
 51
270.000000000001
  0
ARC
  5
320
330
77
100
AcDbEntity
  8
Spigoli visibili(ISO)
100
AcDbCircle
 10
316.9169638239552
 20
161.5340864797995
 30
0.0
 40
165.8406250000007
100
AcDbArc
 50
180.0
 51
188.6880700774294
  0
LINE
  5
321
330
77
100
AcDbEntity
  8
Spigoli visibili(ISO)
100
AcDbLine
 10
151.0763388239545
 20
161.5340864797994
 30
0.0
 11
151.0763388239545
 21
166.5340864797994
 31
0.0
  0
ARC
  5
322
330
77
100
AcDbEntity
  8
Spigoli visibili(ISO)
100
AcDbCircle
 10
153.5763388239544
 20
166.5340864797994
 30
0.0
 40
2.500000000000017
100
AcDbArc
 50
90.00000000000039
 51
180.0
  0
LINE
  5
323
330
77
100
AcDbEntity
  8
Spigoli visibili(ISO)
100
AcDbLine
 10
153.5763388239544
 20
169.0340864797994
 30
0.0
 11
156.7763388239544
 21
169.0340864797994
 31
0.0
  0
ARC
  5
324
330
77
100
AcDbEntity
  8
Spigoli visibili(ISO)
100
AcDbCircle
 10
156.7763388239544
 20
166.5340864797994
 30
0.0
 40
2.499999999999999
100
AcDbArc
 50
0.0
 51
90.0
  0
LINE
  5
325
330
77
100
AcDbEntity
  8
Spigoli visibili(ISO)
100
AcDbLine
 10
159.2763388239544
 20
166.5340864797994
 30
0.0
 11
159.2763388239544
 21
136.1340864797993
 31
0.0
  0
ARC
  5
326
330
77
100
AcDbEntity
  8
Spigoli visibili(ISO)
100
AcDbCircle
 10
158.7763388239544
 20
136.1340864797993
 30
0.0
 40
0.4999999999999983
100
AcDbArc
 50
270.0
 51
0.0
  0
LINE
  5
327
330
77
100
AcDbEntity
  8
Spigoli visibili(ISO)
100
AcDbLine
 10
158.7763388239544
 20
135.6340864797993
 30
0.0
 11
158.2763388239544
 21
135.6340864797993
 31
0.0
  0
ARC
  5
328
330
77
100
AcDbEntity
  8
Spigoli visibili(ISO)
100
AcDbCircle
 10
158.2763388239544
 20
135.1340864797994
 30
0.0
 40
0.4999999999999805
100
AcDbArc
 50
90.0
 51
180.0
  0
LINE
  5
329
330
77
100
AcDbEntity
  8
Spigoli visibili(ISO)
100
AcDbLine
 10
157.7763388239544
 20
135.1340864797993
 30
0.0
 11
157.7763388239544
 21
135.0707850660016
 31
0.0
  0
ARC
  5
32A
330
77
100
AcDbEntity
  8
Spigoli visibili(ISO)
100
AcDbCircle
 10
158.2763388239544
 20
135.0707850660016
 30
0.0
 40
0.4999999999999539
100
AcDbArc
 50
180.0
 51
234.3146652873493
  0
LINE
  5
32B
330
77
100
AcDbEntity
  8
Spigoli visibili(ISO)
100
AcDbLine
 10
148.7763388239544
 20
173.0340864797993
 30
0.0
 11
148.7763388239544
 21
161.5340864797994
 31
0.0
  0
LINE
  5
32C
330
77
100
AcDbEntity
  8
Spigoli visibili(ISO)
100
AcDbLine
 10
148.7763388239544
 20
186.5340864797994
 30
0.0
 11
148.7763388239544
 21
175.0340864797994
 31
0.0
  0
ARC
  5
32D
330
77
100
AcDbEntity
  8
Spigoli visibili(ISO)
100
AcDbCircle
 10
316.916963823955
 20
161.5340864797994
 30
0.0
 40
168.1406250000004
100
AcDbArc
 50
180.0
 51
189.2398469633207
  0
ARC
  5
32E
330
77
100
AcDbEntity
  8
Spigoli visibili(ISO)
100
AcDbCircle
 10
164.7763388239544
 20
136.7840864797993
 30
0.0
 40
13.99999999999999
100
AcDbArc
 50
189.2398469633207
 51
270.0
  0
LINE
  5
32F
330
77
100
AcDbEntity
  8
Spigoli visibili(ISO)
100
AcDbLine
 10
164.7763388239544
 20
122.7840864797993
 30
0.0
 11
174.8842032002235
 21
122.7840864797993
 31
0.0
  0
ARC
  5
330
330
77
100
AcDbEntity
  8
Spigoli visibili(ISO)
100
AcDbCircle
 10
174.8842032002235
 20
132.7840864797994
 30
0.0
 40
10.00000000000002
100
AcDbArc
 50
270.0
 51
314.9999999999999
  0
LINE
  5
331
330
77
100
AcDbEntity
  8
Spigoli visibili(ISO)
100
AcDbLine
 10
181.955271012089
 20
125.7130186679339
 30
0.0
 11
185.8547659487006
 21
129.6125136045455
 31
0.0
  0
ARC
  5
332
330
77
100
AcDbEntity
  8
Spigoli visibili(ISO)
100
AcDbCircle
 10
183.0263388239544
 20
132.4409407292917
 30
0.0
 40
3.999999999999987
100
AcDbArc
 50
315.0
 51
0.0
  0
LINE
  5
333
330
77
100
AcDbEntity
  8
Spigoli visibili(ISO)
100
AcDbLine
 10
187.0263388239544
 20
132.4409407292917
 30
0.0
 11
187.0263388239544
 21
132.7840864797994
 31
0.0
  0
ARC
  5
334
330
77
100
AcDbEntity
  8
Spigoli visibili(ISO)
100
AcDbCircle
 10
186.0263388239545
 20
132.7840864797994
 30
0.0
 40
0.9999999999999964
100
AcDbArc
 50
0.0
 51
90.0
  0
LINE
  5
335
330
77
100
AcDbEntity
  8
Spigoli visibili(ISO)
100
AcDbLine
 10
186.0263388239545
 20
133.7840864797993
 30
0.0
 11
164.7763388239544
 21
133.7840864797993
 31
0.0
  0
ARC
  5
336
330
77
100
AcDbEntity
  8
Spigoli visibili(ISO)
100
AcDbCircle
 10
164.7763388239544
 20
136.7840864797993
 30
0.0
 40
2.999999999999998
100
AcDbArc
 50
180.0
 51
270.0
  0
LINE
  5
337
330
77
100
AcDbEntity
  8
Spigoli visibili(ISO)
100
AcDbLine
 10
161.7763388239544
 20
136.7840864797993
 30
0.0
 11
161.7763388239544
 21
211.2840864797994
 31
0.0
  0
ARC
  5
338
330
77
100
AcDbEntity
  8
Spigoli visibili(ISO)
100
AcDbCircle
 10
164.7763388239544
 20
211.2840864797994
 30
0.0
 40
2.999999999999998
100
AcDbArc
 50
90.0
 51
180.0
  0
LINE
  5
339
330
77
100
AcDbEntity
  8
Spigoli visibili(ISO)
100
AcDbLine
 10
164.7763388239544
 20
214.2840864797994
 30
0.0
 11
201.0263388239545
 21
214.2840864797994
 31
0.0
  0
LINE
  5
33A
330
77
100
AcDbEntity
  8
Spigoli visibili(ISO)
100
AcDbLine
 10
201.0263388239545
 20
225.2840864797994
 30
0.0
 11
164.7763388239545
 21
225.2840864797994
 31
0.0
  0
ARC
  5
33B
330
77
100
AcDbEntity
  8
Spigoli visibili(ISO)
100
AcDbCircle
 10
164.7763388239545
 20
211.2840864797993
 30
0.0
 40
14.00000000000002
100
AcDbArc
 50
90.00000000000017
 51
170.7601530366792
  0
ARC
  5
33C
330
77
100
AcDbEntity
  8
Spigoli visibili(ISO)
100
AcDbCircle
 10
316.916963823951
 20
186.5340864797993
 30
0.0
 40
168.1406249999966
100
AcDbArc
 50
170.760153036679
 51
180.0
  0
LINE
  5
33D
330
77
100
AcDbEntity
  8
Spigoli visibili(ISO)
100
AcDbLine
 10
202.0263388239544
 20
215.2840864797994
 30
0.0
 11
203.0263388239545
 21
214.2840864797994
 31
0.0
  0
LINE
  5
33E
330
77
100
AcDbEntity
  8
Spigoli visibili(ISO)
100
AcDbLine
 10
255.2763388239545
 20
173.0340864797993
 30
0.0
 11
254.2763388239545
 21
174.0340864797994
 31
0.0
  0
LINE
  5
33F
330
77
100
AcDbEntity
  8
Spigoli visibili(ISO)
100
AcDbLine
 10
254.2763388239545
 20
174.0340864797994
 30
0.0
 11
255.2763388239545
 21
175.0340864797994
 31
0.0
  0
LINE
  5
340
330
77
100
AcDbEntity
  8
Spigoli visibili(ISO)
100
AcDbLine
 10
203.0263388239544
 20
225.2840864797994
 30
0.0
 11
202.0263388239544
 21
224.2840864797994
 31
0.0
  0
LINE
  5
341
330
77
100
AcDbEntity
  8
Spigoli visibili(ISO)
100
AcDbLine
 10
239.2763388239544
 20
214.2840864797994
 30
0.0
 11
203.0263388239545
 21
214.2840864797994
 31
0.0
  0
ARC
  5
342
330
77
100
AcDbEntity
  8
Spigoli visibili(ISO)
100
AcDbCircle
 10
239.2763388239544
 20
211.2840864797994
 30
0.0
 40
2.999999999999998
100
AcDbArc
 50
0.0
 51
90.0
  0
LINE
  5
343
330
77
100
AcDbEntity
  8
Spigoli visibili(ISO)
100
AcDbLine
 10
242.2763388239545
 20
136.7840864797993
 30
0.0
 11
242.2763388239545
 21
211.2840864797994
 31
0.0
  0
ARC
  5
344
330
77
100
AcDbEntity
  8
Spigoli visibili(ISO)
100
AcDbCircle
 10
239.2763388239544
 20
136.7840864797993
 30
0.0
 40
2.999999999999998
100
AcDbArc
 50
270.0
 51
0.0
  0
LINE
  5
345
330
77
100
AcDbEntity
  8
Spigoli visibili(ISO)
100
AcDbLine
 10
218.0263388239545
 20
133.7840864797993
 30
0.0
 11
239.2763388239544
 21
133.7840864797993
 31
0.0
  0
ARC
  5
346
330
77
100
AcDbEntity
  8
Spigoli visibili(ISO)
100
AcDbCircle
 10
218.0263388239545
 20
132.7840864797994
 30
0.0
 40
0.9999999999999964
100
AcDbArc
 50
90.0
 51
180.0
  0
LINE
  5
347
330
77
100
AcDbEntity
  8
Spigoli visibili(ISO)
100
AcDbLine
 10
217.0263388239545
 20
132.4409407292917
 30
0.0
 11
217.0263388239545
 21
132.7840864797994
 31
0.0
  0
ARC
  5
348
330
77
100
AcDbEntity
  8
Spigoli visibili(ISO)
100
AcDbCircle
 10
221.0263388239545
 20
132.4409407292917
 30
0.0
 40
3.999999999999987
100
AcDbArc
 50
180.0
 51
225.0
  0
LINE
  5
349
330
77
100
AcDbEntity
  8
Spigoli visibili(ISO)
100
AcDbLine
 10
222.0974066358199
 20
125.7130186679339
 30
0.0
 11
218.1979116992082
 21
129.6125136045455
 31
0.0
  0
ARC
  5
34A
330
77
100
AcDbEntity
  8
Spigoli visibili(ISO)
100
AcDbCircle
 10
229.1684744476854
 20
132.7840864797994
 30
0.0
 40
10.00000000000002
100
AcDbArc
 50
225.0
 51
270.0
  0
LINE
  5
34B
330
77
100
AcDbEntity
  8
Spigoli visibili(ISO)
100
AcDbLine
 10
239.2763388239544
 20
122.7840864797993
 30
0.0
 11
229.1684744476854
 21
122.7840864797993
 31
0.0
  0
ARC
  5
34C
330
77
100
AcDbEntity
  8
Spigoli visibili(ISO)
100
AcDbCircle
 10
239.2763388239544
 20
136.7840864797993
 30
0.0
 40
13.99999999999999
100
AcDbArc
 50
270.0
 51
350.7601530366792
  0
ARC
  5
34D
330
77
100
AcDbEntity
  8
Spigoli visibili(ISO)
100
AcDbCircle
 10
87.13571382395398
 20
161.5340864797994
 30
0.0
 40
168.1406250000004
100
AcDbArc
 50
350.7601530366792
 51
0.0
  0
LINE
  5
34E
330
77
100
AcDbEntity
  8
Spigoli visibili(ISO)
100
AcDbLine
 10
255.2763388239545
 20
173.0340864797993
 30
0.0
 11
255.2763388239545
 21
161.5340864797994
 31
0.0
  0
LINE
  5
34F
330
77
100
AcDbEntity
  8
Spigoli visibili(ISO)
100
AcDbLine
 10
255.2763388239545
 20
186.5340864797994
 30
0.0
 11
255.2763388239545
 21
175.0340864797994
 31
0.0
  0
ARC
  5
350
330
77
100
AcDbEntity
  8
Spigoli visibili(ISO)
100
AcDbCircle
 10
87.13571382395793
 20
186.5340864797993
 30
0.0
 40
168.1406249999966
100
AcDbArc
 50
0.0
 51
9.239846963320998
  0
ARC
  5
351
330
77
100
AcDbEntity
  8
Spigoli visibili(ISO)
100
AcDbCircle
 10
239.2763388239544
 20
211.2840864797993
 30
0.0
 40
14.00000000000002
100
AcDbArc
 50
9.239846963320802
 51
89.99999999999985
  0
LINE
  5
352
330
77
100
AcDbEntity
  8
Spigoli visibili(ISO)
100
AcDbLine
 10
203.0263388239544
 20
225.2840864797994
 30
0.0
 11
239.2763388239544
 21
225.2840864797994
 31
0.0
  0
ARC
  5
353
330
77
100
AcDbEntity
  8
Spigoli visibili(ISO)
100
AcDbCircle
 10
87.1357138239527
 20
186.534086479799
 30
0.0
 40
165.8406250000017
100
AcDbArc
 50
0.0
 51
8.688070077429403
  0
LINE
  5
354
330
77
100
AcDbEntity
  8
Spigoli visibili(ISO)
100
AcDbLine
 10
252.9763388239544
 20
186.5340864797992
 30
0.0
 11
252.9763388239544
 21
181.5340864797994
 31
0.0
  0
ARC
  5
355
330
77
100
AcDbEntity
  8
Spigoli visibili(ISO)
100
AcDbCircle
 10
250.4763388239545
 20
181.5340864797994
 30
0.0
 40
2.5
100
AcDbArc
 50
270.0
 51
0.0
  0
LINE
  5
356
330
77
100
AcDbEntity
  8
Spigoli visibili(ISO)
100
AcDbLine
 10
250.4763388239545
 20
179.0340864797994
 30
0.0
 11
247.2763388239545
 21
179.0340864797994
 31
0.0
  0
ARC
  5
357
330
77
100
AcDbEntity
  8
Spigoli visibili(ISO)
100
AcDbCircle
 10
247.2763388239545
 20
181.5340864797994
 30
0.0
 40
2.5
100
AcDbArc
 50
180.0
 51
270.0
  0
LINE
  5
358
330
77
100
AcDbEntity
  8
Spigoli visibili(ISO)
100
AcDbLine
 10
244.7763388239545
 20
181.5340864797994
 30
0.0
 11
244.7763388239545
 21
211.9340864797993
 31
0.0
  0
ARC
  5
359
330
77
100
AcDbEntity
  8
Spigoli visibili(ISO)
100
AcDbCircle
 10
245.2763388239544
 20
211.9340864797994
 30
0.0
 40
0.4999999999999805
100
AcDbArc
 50
90.00000000000406
 51
180.0
  0
LINE
  5
35A
330
77
100
AcDbEntity
  8
Spigoli visibili(ISO)
100
AcDbLine
 10
245.2763388239545
 20
212.4340864797994
 30
0.0
 11
245.7763388239545
 21
212.4340864797994
 31
0.0
  0
ARC
  5
35B
330
77
100
AcDbEntity
  8
Spigoli visibili(ISO)
100
AcDbCircle
 10
245.7763388239545
 20
212.9340864797994
 30
0.0
 40
0.4999999999999983
100
AcDbArc
 50
270.0
 51
0.0
  0
LINE
  5
35C
330
77
100
AcDbEntity
  8
Spigoli visibili(ISO)
100
AcDbLine
 10
246.2763388239545
 20
212.9340864797994
 30
0.0
 11
246.2763388239545
 21
212.9973878935971
 31
0.0
  0
ARC
  5
35D
330
77
100
AcDbEntity
  8
Spigoli visibili(ISO)
100
AcDbCircle
 10
245.7763388239545
 20
212.9973878935971
 30
0.0
 40
0.4999999999999894
100
AcDbArc
 50
0.0
 51
54.3146652873501
  0
ARC
  5
35E
330
77
100
AcDbEntity
  8
Spigoli visibili(ISO)
100
AcDbCircle
 10
247.5263388239544
 20
215.4340864797994
 30
0.0
 40
2.499999999999999
100
AcDbArc
 50
305.6853347126522
 51
234.3146652873483
  0
ARC
  5
35F
330
77
100
AcDbEntity
  8
Spigoli visibili(ISO)
100
AcDbCircle
 10
249.2763388239544
 20
212.9973878935971
 30
0.0
 40
0.4999999999999624
100
AcDbArc
 50
125.6853347126523
 51
180.0
  0
LINE
  5
360
330
77
100
AcDbEntity
  8
Spigoli visibili(ISO)
100
AcDbLine
 10
248.7763388239545
 20
212.9973878935971
 30
0.0
 11
248.7763388239545
 21
212.9340864797994
 31
0.0
  0
ARC
  5
361
330
77
100
AcDbEntity
  8
Spigoli visibili(ISO)
100
AcDbCircle
 10
249.2763388239545
 20
212.9340864797994
 30
0.0
 40
0.4999999999999983
100
AcDbArc
 50
180.0
 51
270.0
  0
LINE
  5
362
330
77
100
AcDbEntity
  8
Spigoli visibili(ISO)
100
AcDbLine
 10
249.2763388239545
 20
212.4340864797994
 30
0.0
 11
250.084852055461
 21
212.4340864797994
 31
0.0
  0
ARC
  5
363
330
77
100
AcDbEntity
  8
Spigoli visibili(ISO)
100
AcDbCircle
 10
250.084852055461
 20
211.4340864797994
 30
0.0
 40
0.999999999999992
100
AcDbArc
 50
8.688070077428392
 51
90.0
  0
LINE
  5
364
330
77
100
AcDbEntity
  8
Spigoli visibili(ISO)
100
AcDbLine
 10
239.2763388239544
 20
124.7840864797993
 30
0.0
 11
229.1684744476854
 21
124.7840864797994
 31
0.0
  0
ARC
  5
365
330
77
100
AcDbEntity
  8
Spigoli visibili(ISO)
100
AcDbCircle
 10
229.1684744476854
 20
132.7840864797994
 30
0.0
 40
8.000000000000033
100
AcDbArc
 50
225.0000000000003
 51
270.0
  0
LINE
  5
366
330
77
100
AcDbEntity
  8
Spigoli visibili(ISO)
100
AcDbLine
 10
223.511620198193
 20
127.127232230307
 30
0.0
 11
221.5618727298872
 21
129.0769796986128
 31
0.0
  0
ARC
  5
367
330
77
100
AcDbEntity
  8
Spigoli visibili(ISO)
100
AcDbCircle
 10
222.2689795110738
 20
129.7840864797993
 30
0.0
 40
0.9999999999999996
100
AcDbArc
 50
90.0
 51
225.0
  0
LINE
  5
368
330
77
100
AcDbEntity
  8
Spigoli visibili(ISO)
100
AcDbLine
 10
222.2689795110738
 20
130.7840864797993
 30
0.0
 11
241.0083896315234
 21
130.7840864797993
 31
0.0
  0
ARC
  5
369
330
77
100
AcDbEntity
  8
Spigoli visibili(ISO)
100
AcDbCircle
 10
241.0083896315234
 20
129.7840864797993
 30
0.0
 40
1.000000000000005
100
AcDbArc
 50
30.00000000000048
 51
90.0
  0
LINE
  5
36A
330
77
100
AcDbEntity
  8
Spigoli visibili(ISO)
100
AcDbLine
 10
241.8744150353078
 20
130.2840864797994
 30
0.0
 11
242.4414422943193
 21
129.3019664579149
 31
0.0
  0
ARC
  5
36B
330
77
100
AcDbEntity
  8
Spigoli visibili(ISO)
100
AcDbCircle
 10
239.843366082966
 20
127.8019664579149
 30
0.0
 40
2.999999999999997
100
AcDbArc
 50
273.6122000387571
 51
30.00000000000013
  0
ARC
  5
36C
330
77
100
AcDbEntity
  8
Spigoli visibili(ISO)
100
AcDbCircle
 10
239.2763388239542
 20
136.7840864798059
 30
0.0
 40
12.00000000000654
100
AcDbArc
 50
270.0000000000013
 51
273.6122000387565
  0
ARC
  5
36D
330
77
100
AcDbEntity
  8
Spigoli visibili(ISO)
100
AcDbCircle
 10
228.5263388239545
 20
221.7840864797993
 30
0.0
 40
1.000000000000005
100
AcDbArc
 50
90.0
 51
180.0
  0
LINE
  5
36E
330
77
100
AcDbEntity
  8
Spigoli visibili(ISO)
100
AcDbLine
 10
228.5263388239545
 20
222.7840864797994
 30
0.0
 11
239.2763388239544
 21
222.7840864797994
 31
0.0
  0
ARC
  5
36F
330
77
100
AcDbEntity
  8
Spigoli visibili(ISO)
100
AcDbCircle
 10
239.2763388239546
 20
211.284086479801
 30
0.0
 40
11.49999999999838
100
AcDbArc
 50
78.40848017058506
 51
90.0000000000009
  0
ARC
  5
370
330
77
100
AcDbEntity
  8
Spigoli visibili(ISO)
100
AcDbCircle
 10
241.1852017069311
 20
220.5903339777974
 30
0.0
 40
1.999999999999992
100
AcDbArc
 50
329.9999999999986
 51
78.40848017058529
  0
LINE
  5
371
330
77
100
AcDbEntity
  8
Spigoli visibili(ISO)
100
AcDbLine
 10
242.9172525145
 20
219.5903339777974
 30
0.0
 11
241.8744150353078
 21
217.7840864797994
 31
0.0
  0
ARC
  5
372
330
77
100
AcDbEntity
  8
Spigoli visibili(ISO)
100
AcDbCircle
 10
240.1423642277389
 20
218.7840864797994
 30
0.0
 40
2.000000000000042
100
AcDbArc
 50
270.0000000000021
 51
330.0000000000001
  0
LINE
  5
373
330
77
100
AcDbEntity
  8
Spigoli visibili(ISO)
100
AcDbLine
 10
240.1423642277389
 20
216.7840864797994
 30
0.0
 11
228.5263388239545
 21
216.7840864797994
 31
0.0
  0
ARC
  5
374
330
77
100
AcDbEntity
  8
Spigoli visibili(ISO)
100
AcDbCircle
 10
228.5263388239545
 20
217.7840864797994
 30
0.0
 40
1.000000000000005
100
AcDbArc
 50
180.0
 51
270.0
  0
LINE
  5
375
330
77
100
AcDbEntity
  8
Spigoli visibili(ISO)
100
AcDbLine
 10
227.5263388239545
 20
217.7840864797994
 30
0.0
 11
227.5263388239545
 21
221.7840864797993
 31
0.0
  0
LINE
  5
376
330
77
100
AcDbEntity
  8
Spigoli visibili(ISO)
100
AcDbLine
 10
207.0263388239545
 20
217.7840864797994
 30
0.0
 11
207.0263388239545
 21
221.7840864797993
 31
0.0
  0
ARC
  5
377
330
77
100
AcDbEntity
  8
Spigoli visibili(ISO)
100
AcDbCircle
 10
208.0263388239544
 20
221.7840864797993
 30
0.0
 40
0.9999999999999953
100
AcDbArc
 50
90.0
 51
180.0
  0
LINE
  5
378
330
77
100
AcDbEntity
  8
Spigoli visibili(ISO)
100
AcDbLine
 10
208.0263388239544
 20
222.7840864797994
 30
0.0
 11
224.0263388239545
 21
222.7840864797994
 31
0.0
  0
ARC
  5
379
330
77
100
AcDbEntity
  8
Spigoli visibili(ISO)
100
AcDbCircle
 10
224.0263388239545
 20
221.7840864797993
 30
0.0
 40
0.9999999999999964
100
AcDbArc
 50
0.0
 51
90.0
  0
LINE
  5
37A
330
77
100
AcDbEntity
  8
Spigoli visibili(ISO)
100
AcDbLine
 10
225.0263388239545
 20
221.7840864797993
 30
0.0
 11
225.0263388239545
 21
217.7840864797994
 31
0.0
  0
ARC
  5
37B
330
77
100
AcDbEntity
  8
Spigoli visibili(ISO)
100
AcDbCircle
 10
224.0263388239545
 20
217.7840864797994
 30
0.0
 40
1.0
100
AcDbArc
 50
270.0
 51
0.0
  0
LINE
  5
37C
330
77
100
AcDbEntity
  8
Spigoli visibili(ISO)
100
AcDbLine
 10
224.0263388239545
 20
216.7840864797994
 30
0.0
 11
208.0263388239544
 21
216.7840864797994
 31
0.0
  0
ARC
  5
37D
330
77
100
AcDbEntity
  8
Spigoli visibili(ISO)
100
AcDbCircle
 10
208.0263388239544
 20
217.7840864797994
 30
0.0
 40
0.9999999999999964
100
AcDbArc
 50
180.0
 51
270.0
  0
ARC
  5
37E
330
77
100
AcDbEntity
  8
Spigoli visibili(ISO)
100
AcDbCircle
 10
250.4763388239545
 20
166.5340864797994
 30
0.0
 40
2.500000000000013
100
AcDbArc
 50
0.0
 51
90.0
  0
LINE
  5
37F
330
77
100
AcDbEntity
  8
Spigoli visibili(ISO)
100
AcDbLine
 10
252.9763388239544
 20
166.5340864797994
 30
0.0
 11
252.9763388239544
 21
161.5340864797994
 31
0.0
  0
ARC
  5
380
330
77
100
AcDbEntity
  8
Spigoli visibili(ISO)
100
AcDbCircle
 10
87.13571382395379
 20
161.5340864797995
 30
0.0
 40
165.8406250000006
100
AcDbArc
 50
351.3119299225706
 51
0.0
  0
ARC
  5
381
330
77
100
AcDbEntity
  8
Spigoli visibili(ISO)
100
AcDbCircle
 10
250.084852055461
 20
136.6340864797993
 30
0.0
 40
0.9999999999999964
100
AcDbArc
 50
270.0
 51
351.3119299225726
  0
LINE
  5
382
330
77
100
AcDbEntity
  8
Spigoli visibili(ISO)
100
AcDbLine
 10
250.0848520554609
 20
135.6340864797993
 30
0.0
 11
249.2763388239545
 21
135.6340864797993
 31
0.0
  0
ARC
  5
383
330
77
100
AcDbEntity
  8
Spigoli visibili(ISO)
100
AcDbCircle
 10
249.2763388239545
 20
135.1340864797994
 30
0.0
 40
0.4999999999999805
100
AcDbArc
 50
90.0
 51
180.0
  0
LINE
  5
384
330
77
100
AcDbEntity
  8
Spigoli visibili(ISO)
100
AcDbLine
 10
248.7763388239545
 20
135.1340864797993
 30
0.0
 11
248.7763388239544
 21
135.0707850660016
 31
0.0
  0
ARC
  5
385
330
77
100
AcDbEntity
  8
Spigoli visibili(ISO)
100
AcDbCircle
 10
249.2763388239545
 20
135.0707850660016
 30
0.0
 40
0.5000000000000249
100
AcDbArc
 50
180.0
 51
234.3146652873468
  0
ARC
  5
386
330
77
100
AcDbEntity
  8
Spigoli visibili(ISO)
100
AcDbCircle
 10
247.5263388239544
 20
132.6340864797993
 30
0.0
 40
2.500000000000003
100
AcDbArc
 50
125.6853347126517
 51
54.3146652873474
  0
ARC
  5
387
330
77
100
AcDbEntity
  8
Spigoli visibili(ISO)
100
AcDbCircle
 10
245.7763388239545
 20
135.0707850660016
 30
0.0
 40
0.4999999999999572
100
AcDbArc
 50
305.685334712649
 51
0.0
  0
LINE
  5
388
330
77
100
AcDbEntity
  8
Spigoli visibili(ISO)
100
AcDbLine
 10
246.2763388239545
 20
135.0707850660016
 30
0.0
 11
246.2763388239544
 21
135.1340864797993
 31
0.0
  0
ARC
  5
389
330
77
100
AcDbEntity
  8
Spigoli visibili(ISO)
100
AcDbCircle
 10
245.7763388239545
 20
135.1340864797994
 30
0.0
 40
0.4999999999999805
100
AcDbArc
 50
0.0
 51
90.0
  0
LINE
  5
38A
330
77
100
AcDbEntity
  8
Spigoli visibili(ISO)
100
AcDbLine
 10
245.7763388239545
 20
135.6340864797993
 30
0.0
 11
245.2763388239545
 21
135.6340864797993
 31
0.0
  0
ARC
  5
38B
330
77
100
AcDbEntity
  8
Spigoli visibili(ISO)
100
AcDbCircle
 10
245.2763388239545
 20
136.1340864797993
 30
0.0
 40
0.4999999999999938
100
AcDbArc
 50
180.0
 51
270.0
  0
LINE
  5
38C
330
77
100
AcDbEntity
  8
Spigoli visibili(ISO)
100
AcDbLine
 10
244.7763388239545
 20
136.1340864797993
 30
0.0
 11
244.7763388239545
 21
166.5340864797994
 31
0.0
  0
ARC
  5
38D
330
77
100
AcDbEntity
  8
Spigoli visibili(ISO)
100
AcDbCircle
 10
247.2763388239545
 20
166.5340864797994
 30
0.0
 40
2.5
100
AcDbArc
 50
90.0
 51
180.0
  0
LINE
  5
38E
330
77
100
AcDbEntity
  8
Spigoli visibili(ISO)
100
AcDbLine
 10
247.2763388239545
 20
169.0340864797994
 30
0.0
 11
250.4763388239545
 21
169.0340864797994
 31
0.0
  0
LINE
  5
38F
330
77
100
AcDbEntity
  8
Centro(ISO)
  6
CHAIN
 48
11.11197376251221
100
AcDbLine
 10
252.5263388239545
 20
132.6340864797993
 30
0.0
 11
242.5263388239545
 21
132.6340864797993
 31
0.0
  0
LINE
  5
390
330
77
100
AcDbEntity
  8
Centro(ISO)
  6
CHAIN
 48
11.11197376251221
100
AcDbLine
 10
247.5263388239544
 20
137.6340864797993
 30
0.0
 11
247.5263388239544
 21
127.6340864797993
 31
0.0
  0
LINE
  5
391
330
77
100
AcDbEntity
  8
Centro(ISO)
  6
CHAIN
 48
11.11197376251221
100
AcDbLine
 10
161.5263388239544
 20
132.6340864797993
 30
0.0
 11
151.5263388239544
 21
132.6340864797993
 31
0.0
  0
LINE
  5
392
330
77
100
AcDbEntity
  8
Centro(ISO)
  6
CHAIN
 48
11.11197376251221
100
AcDbLine
 10
156.5263388239544
 20
137.6340864797993
 30
0.0
 11
156.5263388239544
 21
127.6340864797993
 31
0.0
  0
LINE
  5
393
330
77
100
AcDbEntity
  8
Centro(ISO)
  6
CHAIN
 48
11.11197376251221
100
AcDbLine
 10
161.5263388239544
 20
215.4340864797994
 30
0.0
 11
151.5263388239544
 21
215.4340864797994
 31
0.0
  0
LINE
  5
394
330
77
100
AcDbEntity
  8
Centro(ISO)
  6
CHAIN
 48
11.11197376251221
100
AcDbLine
 10
156.5263388239544
 20
220.4340864797994
 30
0.0
 11
156.5263388239544
 21
210.4340864797994
 31
0.0
  0
LINE
  5
395
330
77
100
AcDbEntity
  8
Centro(ISO)
  6
CHAIN
 48
11.11197376251221
100
AcDbLine
 10
252.5263388239545
 20
215.4340864797994
 30
0.0
 11
242.5263388239545
 21
215.4340864797994
 31
0.0
  0
LINE
  5
396
330
77
100
AcDbEntity
  8
Centro(ISO)
  6
CHAIN
 48
11.11197376251221
100
AcDbLine
 10
247.5263388239544
 20
220.4340864797994
 30
0.0
 11
247.5263388239544
 21
210.4340864797994
 31
0.0
  0
LINE
  5
397
330
77
100
AcDbEntity
  8
Centro(ISO)
  6
CHAIN
 48
20.4628849029541
100
AcDbLine
 10
255.7763388239544
 20
211.2840864797993
 30
0.0
 11
239.2763388239544
 21
211.2840864797993
 31
0.0
  0
LINE
  5
398
330
77
100
AcDbEntity
  8
Centro(ISO)
  6
CHAIN
 48
20.4628849029541
100
AcDbLine
 10
239.2763388239544
 20
227.7840864797993
 30
0.0
 11
239.2763388239544
 21
211.2840864797993
 31
0.0
  0
LINE
  5
399
330
77
100
AcDbEntity
  8
Centro(ISO)
  6
CHAIN
 48
20.4628849029541
100
AcDbLine
 10
164.7763388239545
 20
211.2840864797993
 30
0.0
 11
148.2763388239545
 21
211.2840864797993
 31
0.0
  0
LINE
  5
39A
330
77
100
AcDbEntity
  8
Centro(ISO)
  6
CHAIN
 48
20.4628849029541
100
AcDbLine
 10
164.7763388239545
 20
227.7840864797993
 30
0.0
 11
164.7763388239545
 21
211.2840864797993
 31
0.0
  0
LINE
  5
39B
330
77
100
AcDbEntity
  8
Centro(ISO)
  6
CHAIN
 48
20.4628849029541
100
AcDbLine
 10
164.7763388239544
 20
136.7840864797993
 30
0.0
 11
148.2763388239544
 21
136.7840864797993
 31
0.0
  0
LINE
  5
39C
330
77
100
AcDbEntity
  8
Centro(ISO)
  6
CHAIN
 48
20.4628849029541
100
AcDbLine
 10
164.7763388239544
 20
136.7840864797993
 30
0.0
 11
164.7763388239544
 21
120.2840864797994
 31
0.0
  0
LINE
  5
39D
330
77
100
AcDbEntity
  8
Centro(ISO)
  6
CHAIN
 48
20.4628849029541
100
AcDbLine
 10
255.7763388239544
 20
136.7840864797993
 30
0.0
 11
239.2763388239544
 21
136.7840864797993
 31
0.0
  0
LINE
  5
39E
330
77
100
AcDbEntity
  8
Centro(ISO)
  6
CHAIN
 48
20.4628849029541
100
AcDbLine
 10
239.2763388239544
 20
136.7840864797993
 30
0.0
 11
239.2763388239544
 21
120.2840864797994
 31
0.0
  0
LINE
  5
39F
330
77
100
AcDbEntity
  8
Linea del centro(ISO)
  6
CHAIN
 48
20.4628849029541
100
AcDbLine
 10
202.0263388239544
 20
119.8766450325614
 30
0.0
 11
202.0263388239544
 21
228.3370697944667
 31
0.0
  0
LINE
  5
3A0
330
77
100
AcDbEntity
  8
Linea del centro(ISO)
  6
CHAIN
 48
20.4628849029541
100
AcDbLine
 10
146.737904946867
 20
174.0340864797994
 30
0.0
 11
258.005187637813
 21
174.0340864797994
 31
0.0
  0
ENDSEC
  0
SECTION
  2
OBJECTS
  0
DICTIONARY
  5
C
330
0
100
AcDbDictionary
281
     1
  3
ACAD_COLOR
350
6E
  3
ACAD_GROUP
350
D
  3
ACAD_LAYOUT
350
6D
  3
ACAD_MATERIAL
350
10
  3
ACAD_MLEADERSTYLE
350
71
  3
ACAD_MLINESTYLE
350
6A
  3
ACAD_PLOTSETTINGS
350
6C
  3
ACAD_PLOTSTYLENAME
350
E
  3
ACAD_SCALELIST
350
3D
  3
ACAD_TABLESTYLE
350
6F
  3
ACAD_VISUALSTYLE
350
29
  3
ACDB_RECOMPOSE_DATA
350
635
  3
AcDbVariableDictionary
350
545
  3
AcmDictionary
350
5B6
  3
AMG
350
596
  3
AMGSNAPSETTINGS
350
5EE
  3
DWGPROPS
350
636
  0
DICTIONARY
  5
500
330
8
100
AcDbDictionary
280
     1
281
     1
  0
DICTIONARY
  5
459
330
27F
100
AcDbDictionary
280
     1
281
     1
  3
ACAD_MLATT
360
5F8
  3
ACAD_XREC_ROUNDTRIP
360
5F7
  0
DICTIONARY
  5
45C
330
282
100
AcDbDictionary
280
     1
281
     1
  3
ACAD_MLATT
360
5FA
  3
ACAD_XREC_ROUNDTRIP
360
5F9
  0
DICTIONARY
  5
45F
330
284
100
AcDbDictionary
280
     1
281
     1
  3
ACAD_MLATT
360
5FC
  3
ACAD_XREC_ROUNDTRIP
360
5FB
  0
DICTIONARY
  5
464
330
286
100
AcDbDictionary
280
     1
281
     1
  3
ACAD_MLATT
360
600
  3
ACAD_XREC_ROUNDTRIP
360
5FF
  0
DICTIONARY
  5
467
330
287
100
AcDbDictionary
280
     1
281
     1
  3
ACAD_MLATT
360
602
  3
ACAD_XREC_ROUNDTRIP
360
601
  0
DICTIONARY
  5
46A
330
288
100
AcDbDictionary
280
     1
281
     1
  3
ACAD_MLATT
360
604
  3
ACAD_XREC_ROUNDTRIP
360
603
  0
DICTIONARY
  5
46D
330
289
100
AcDbDictionary
280
     1
281
     1
  3
ACAD_MLATT
360
606
  3
ACAD_XREC_ROUNDTRIP
360
605
  0
DICTIONARY
  5
5FE
330
5FD
100
AcDbDictionary
280
     1
281
     1
  0
DICTIONARY
  5
667
330
416
100
AcDbDictionary
280
     1
281
     1
  3
ACAD_MTEXT_RT
360
668
  0
DICTIONARY
  5
474
330
422
100
AcDbDictionary
280
     1
281
     1
  3
ACAD_MLATT
360
608
  3
ACAD_XREC_ROUNDTRIP
360
607
  0
DICTIONARY
  5
477
330
423
100
AcDbDictionary
280
     1
281
     1
  3
ACAD_MLATT
360
60A
  3
ACAD_XREC_ROUNDTRIP
360
609
  0
DICTIONARY
  5
47A
330
425
100
AcDbDictionary
280
     1
281
     1
  3
ACAD_MLATT
360
60C
  3
ACAD_XREC_ROUNDTRIP
360
60B
  0
DICTIONARY
  5
47D
330
427
100
AcDbDictionary
280
     1
281
     1
  3
ACAD_MLATT
360
60E
  3
ACAD_XREC_ROUNDTRIP
360
60D
  0
DICTIONARY
  5
480
330
428
100
AcDbDictionary
280
     1
281
     1
  3
ACAD_MLATT
360
610
  3
ACAD_XREC_ROUNDTRIP
360
60F
  0
DICTIONARY
  5
483
330
429
100
AcDbDictionary
280
     1
281
     1
  3
ACAD_MLATT
360
612
  3
ACAD_XREC_ROUNDTRIP
360
611
  0
DICTIONARY
  5
486
330
42A
100
AcDbDictionary
280
     1
281
     1
  3
ACAD_MLATT
360
614
  3
ACAD_XREC_ROUNDTRIP
360
613
  0
DICTIONARY
  5
489
330
42B
100
AcDbDictionary
280
     1
281
     1
  3
ACAD_MLATT
360
616
  3
ACAD_XREC_ROUNDTRIP
360
615
  0
DICTIONARY
  5
48C
330
42C
100
AcDbDictionary
280
     1
281
     1
  3
ACAD_MLATT
360
618
  3
ACAD_XREC_ROUNDTRIP
360
617
  0
DICTIONARY
  5
48F
330
42D
100
AcDbDictionary
280
     1
281
     1
  3
ACAD_MLATT
360
61A
  3
ACAD_XREC_ROUNDTRIP
360
619
  0
DICTIONARY
  5
492
330
42E
100
AcDbDictionary
280
     1
281
     1
  3
ACAD_MLATT
360
61C
  3
ACAD_XREC_ROUNDTRIP
360
61B
  0
DICTIONARY
  5
495
330
42F
100
AcDbDictionary
280
     1
281
     1
  3
ACAD_MLATT
360
61E
  3
ACAD_XREC_ROUNDTRIP
360
61D
  0
DICTIONARY
  5
498
330
430
100
AcDbDictionary
280
     1
281
     1
  3
ACAD_MLATT
360
620
  3
ACAD_XREC_ROUNDTRIP
360
61F
  0
DICTIONARY
  5
49B
330
431
100
AcDbDictionary
280
     1
281
     1
  3
ACAD_MLATT
360
622
  3
ACAD_XREC_ROUNDTRIP
360
621
  0
DICTIONARY
  5
49E
330
432
100
AcDbDictionary
280
     1
281
     1
  3
ACAD_MLATT
360
624
  3
ACAD_XREC_ROUNDTRIP
360
623
  0
DICTIONARY
  5
4A1
330
433
100
AcDbDictionary
280
     1
281
     1
  3
ACAD_MLATT
360
626
  3
ACAD_XREC_ROUNDTRIP
360
625
  0
DICTIONARY
  5
4A4
330
434
100
AcDbDictionary
280
     1
281
     1
  3
ACAD_MLATT
360
628
  3
ACAD_XREC_ROUNDTRIP
360
627
  0
DICTIONARY
  5
4A7
330
435
100
AcDbDictionary
280
     1
281
     1
  3
ACAD_MLATT
360
62A
  3
ACAD_XREC_ROUNDTRIP
360
629
  0
DICTIONARY
  5
4AA
330
436
100
AcDbDictionary
280
     1
281
     1
  3
ACAD_MLATT
360
62C
  3
ACAD_XREC_ROUNDTRIP
360
62B
  0
DICTIONARY
  5
4AD
330
437
100
AcDbDictionary
280
     1
281
     1
  3
ACAD_MLATT
360
62E
  3
ACAD_XREC_ROUNDTRIP
360
62D
  0
DICTIONARY
  5
4B0
330
438
100
AcDbDictionary
280
     1
281
     1
  3
ACAD_MLATT
360
630
  3
ACAD_XREC_ROUNDTRIP
360
62F
  0
DICTIONARY
  5
4B3
330
439
100
AcDbDictionary
280
     1
281
     1
  3
ACAD_MLATT
360
632
  3
ACAD_XREC_ROUNDTRIP
360
631
  0
DICTIONARY
  5
4B6
330
43A
100
AcDbDictionary
280
     1
281
     1
  3
ACAD_MLATT
360
634
  3
ACAD_XREC_ROUNDTRIP
360
633
  0
DICTIONARY
  5
6E
102
{ACAD_REACTORS
330
C
102
}
330
C
100
AcDbDictionary
281
     1
  0
DICTIONARY
  5
D
102
{ACAD_REACTORS
330
C
102
}
330
C
100
AcDbDictionary
281
     1
  0
DICTIONARY
  5
6D
102
{ACAD_REACTORS
330
C
102
}
330
C
100
AcDbDictionary
281
     1
  3
Layout1
350
76
  3
Layout2
350
7E
  3
Model
350
7A
  0
DICTIONARY
  5
10
102
{ACAD_REACTORS
330
C
102
}
330
C
100
AcDbDictionary
281
     1
  3
ByBlock
350
19
  3
ByLayer
350
11
  3
Global
350
21
  0
DICTIONARY
  5
71
102
{ACAD_REACTORS
330
C
102
}
330
C
100
AcDbDictionary
281
     1
  3
Standard
350
72
  0
DICTIONARY
  5
6A
102
{ACAD_REACTORS
330
C
102
}
330
C
100
AcDbDictionary
281
     1
  3
Standard
350
6B
  0
DICTIONARY
  5
6C
102
{ACAD_REACTORS
330
C
102
}
330
C
100
AcDbDictionary
281
     1
  0
ACDBDICTIONARYWDFLT
  5
E
102
{ACAD_REACTORS
330
C
102
}
330
C
100
AcDbDictionary
281
     1
  3
Normal
350
F
100
AcDbDictionaryWithDefault
340
F
  0
DICTIONARY
  5
3D
102
{ACAD_REACTORS
330
C
102
}
330
C
100
AcDbDictionary
281
     1
  3
A0
350
3E
  3
A1
350
3F
  3
A2
350
40
  3
A3
350
41
  3
A4
350
42
  3
A5
350
43
  3
A6
350
44
  3
A7
350
45
  3
A8
350
46
  3
A9
350
47
  3
B0
350
48
  3
B1
350
49
  3
B2
350
4A
  3
B3
350
4B
  3
B4
350
4C
  3
B5
350
4D
  3
B6
350
4E
  3
B7
350
4F
  3
B8
350
50
  3
B9
350
51
  3
C0
350
52
  3
C1
350
53
  3
C2
350
54
  3
C3
350
55
  3
C4
350
56
  3
C5
350
57
  3
C6
350
58
  3
C7
350
59
  3
C8
350
5A
  3
C9
350
5B
  3
D0
350
5C
  3
D1
350
5D
  3
D2
350
5E
  0
DICTIONARY
  5
6F
102
{ACAD_REACTORS
330
C
102
}
330
C
100
AcDbDictionary
281
     1
  3
Standard
350
70
  0
DICTIONARY
  5
29
102
{ACAD_REACTORS
330
C
102
}
330
C
100
AcDbDictionary
281
     1
  3
2dWireframe
350
2F
  3
3D Hidden
350
31
  3
3dWireframe
350
30
  3
Basic
350
2E
  3
Brighten
350
35
  3
ColorChange
350
39
  3
Conceptual
350
32
  3
Dim
350
34
  3
EdgeColorOff
350
3C
  3
Facepattern
350
38
  3
Flat
350
2A
  3
FlatWithEdges
350
2B
  3
Gouraud
350
2C
  3
GouraudWithEdges
350
2D
  3
JitterOff
350
3A
  3
Linepattern
350
37
  3
OverhangOff
350
3B
  3
Realistic
350
33
  3
Thicken
350
36
  0
XRECORD
  5
635
102
{ACAD_REACTORS
330
C
102
}
330
C
100
AcDbXrecord
280
     1
 90
        1
330
70
330
27F
330
282
330
284
330
286
330
287
330
288
330
289
330
422
330
423
330
425
330
427
330
428
330
429
330
42A
330
42B
330
42C
330
42D
330
42E
330
42F
330
430
330
431
330
432
330
433
330
434
330
435
330
436
330
437
330
438
330
439
330
43A
  0
DICTIONARY
  5
545
102
{ACAD_REACTORS
330
C
102
}
330
C
100
AcDbDictionary
281
     1
  3
CANNOSCALE
350
549
  3
CMLEADERSTYLE
350
547
  3
CTABLESTYLE
350
546
  3
DIMASSOC
350
550
  3
HIDETEXT
350
54F
  3
INDEXCTL
350
54E
  3
LAYEREVAL
350
54B
  3
LAYERNOTIFY
350
54C
  3
LIGHTINGUNITS
350
54A
  3
MSLTSCALE
350
548
  3
SORTENTS
350
54D
  3
XCLIPFRAME
350
5F5
  0
DICTIONARY
  5
5B6
102
{ACAD_REACTORS
330
C
102
}
330
C
100
AcDbDictionary
281
     1
  3
AcmStdDictionary
350
5C0
  0
DICTIONARY
  5
596
102
{ACAD_REACTORS
330
C
102
}
330
C
100
AcDbDictionary
281
     1
  0
DICTIONARY
  5
5EE
102
{ACAD_REACTORS
330
C
102
}
330
C
100
AcDbDictionary
281
     1
  0
XRECORD
  5
636
102
{ACAD_REACTORS
330
C
102
}
330
C
100
AcDbXrecord
280
     1
  1
DWGPROPS COOKIE
  2

  3

  4
alemoc
  6

  7

  8
amenegon
  9

300
Responsabile=
301
Società=
302
Categoria=
303
Numero parte=CGA-345-P
304
Descrizione=
305
Progetto=
306
Progettista=alemoc
307
Ingegnere=
308
Autorità=
309
Centro gestione costi=
 40
0.000608900462963
 41
2456105.611547801
 42
2456105.636717072
  1

 90
       16
300
Fornitore=
300
Stato utente=
300
Stato progetto=In corso
300
Verificato da=
300
Progett. approvata da=
300
Prod. approvata da=
  0
XRECORD
  5
5F8
102
{ACAD_REACTORS
330
459
102
}
330
459
100
AcDbXrecord
280
     1
 70
     4
 70
     0
 70
     0
 40
1.0
  2
DESCRIZIONE_1
  1
Embedded Object
 10
-93.49119398589706
 20
5.505471063720221
 30
0.0
 40
2.489199936389923
 41
106.9783856763648
 46
0.0
 71
     1
 72
     5
  1
MODIFICATO QUOTA DA 20 A 25
  7
Stile testo15
 73
     1
 44
1.0
  0
XRECORD
  5
5F7
102
{ACAD_REACTORS
330
459
102
}
330
459
100
AcDbXrecord
280
     1
102
ACAD_MATT_HEIGHT
140
2.489199936389923
  0
XRECORD
  5
5FA
102
{ACAD_REACTORS
330
45C
102
}
330
45C
100
AcDbXrecord
280
     1
 70
     4
 70
     0
 70
     0
 40
1.0
  2
DESCRIZIONE_2
  1
Embedded Object
 10
-93.56890635983567
 20
1.937379052550589
 30
0.0
 40
2.489199936389923
 41
106.0389395913541
 46
0.0
 71
     1
 72
     5
  1
MODIFICATO INTERASSE DA 80 A 90
  7
Stile testo15
 73
     1
 44
1.0
  0
XRECORD
  5
5F9
102
{ACAD_REACTORS
330
45C
102
}
330
45C
100
AcDbXrecord
280
     1
102
ACAD_MATT_HEIGHT
140
2.489199936389923
  0
XRECORD
  5
5FC
102
{ACAD_REACTORS
330
45F
102
}
330
45F
100
AcDbXrecord
280
     1
 70
     4
 70
     0
 70
     0
 40
1.0
  2
NR.REV
  1
Embedded Object
 10
17.21416714364988
 20
2.459098066293776
 30
0.0
 40
3.499999940395355
 41
5.795553091395007
 46
0.0
 71
     5
 72
     5
  1
\W0.9000;01
  7
Stile testo116
 73
     1
 44
1.0
  0
XRECORD
  5
5FB
102
{ACAD_REACTORS
330
45F
102
}
330
45F
100
AcDbXrecord
280
     1
102
ACAD_MATT_HEIGHT
140
3.499999940395355
  0
XRECORD
  5
600
102
{ACAD_REACTORS
330
464
102
}
330
464
100
AcDbXrecord
280
     1
 70
     4
 70
     0
 70
     1
340
5FD
 40
1.0
  2
DISEGNATO
  1
Embedded Object
 10
32.66124997243344
 20
4.468844212966427
 30
0.0
 40
2.489199936389923
 41
24.93167301252459
 46
0.0
 71
     5
 72
     5
  1
\W0.9000;FRIGETTO MAURO
  7
Stile testo115
 73
     1
 44
1.0
  0
XRECORD
  5
5FF
102
{ACAD_REACTORS
330
464
102
}
330
464
100
AcDbXrecord
280
     1
102
ACAD_MATT_HEIGHT
140
2.489199936389923
  0
XRECORD
  5
602
102
{ACAD_REACTORS
330
467
102
}
330
467
100
AcDbXrecord
280
     1
 70
     4
 70
     0
 70
     0
 40
1.0
  2
DATA
  1
Embedded Object
 10
32.60244885683786
 20
0.4703683121771185
 30
0.0
 40
2.489199936389923
 41
24.99047412812017
 46
0.0
 71
     5
 72
     5
  1
12-12-01
  7
Stile testo15
 73
     1
 44
1.0
  0
XRECORD
  5
601
102
{ACAD_REACTORS
330
467
102
}
330
467
100
AcDbXrecord
280
     1
102
ACAD_MATT_HEIGHT
140
2.489199936389923
  0
XRECORD
  5
604
102
{ACAD_REACTORS
330
46A
102
}
330
46A
100
AcDbXrecord
280
     1
 70
     4
 70
     0
 70
     0
 40
1.0
  2
DATA
  1
Embedded Object
 10
57.6076232638568
 20
0.4850685912241559
 30
0.0
 40
2.489199936389923
 41
24.96107357032237
 46
0.0
 71
     5
 72
     5
  1
12-12-01
  7
Stile testo15
 73
     1
 44
1.0
  0
XRECORD
  5
603
102
{ACAD_REACTORS
330
46A
102
}
330
46A
100
AcDbXrecord
280
     1
102
ACAD_MATT_HEIGHT
140
2.489199936389923
  0
XRECORD
  5
606
102
{ACAD_REACTORS
330
46D
102
}
330
46D
100
AcDbXrecord
280
     1
 70
     4
 70
     0
 70
     0
 40
1.0
  2
DATA
  1
Embedded Object
 10
82.5539965552803
 20
0.4703683121771541
 30
0.0
 40
2.489199936389923
 41
24.93167301252459
 46
0.0
 71
     5
 72
     5
  1
12-12-01
  7
Stile testo15
 73
     1
 44
1.0
  0
XRECORD
  5
605
102
{ACAD_REACTORS
330
46D
102
}
330
46D
100
AcDbXrecord
280
     1
102
ACAD_MATT_HEIGHT
140
2.489199936389923
  0
XRECORD
  5
668
102
{ACAD_REACTORS
330
667
102
}
330
667
100
AcDbXrecord
280
     1
 40
567138.0
  1
\fArial|b0|i0;\H2.0066;Via Cassola , 64\P36027 Rosà (VI)\PITALY\PTel.0424/585111\PFax.0424/533417\Pwww.comunello.com
  0
XRECORD
  5
608
102
{ACAD_REACTORS
330
474
102
}
330
474
100
AcDbXrecord
280
     1
 70
     4
 70
     0
 70
     0
 40
1.0
  2
Denominazione__1
  1
Embedded Object
 10
11.0
 20
66.5
 30
0.0
 40
2.006599903106689
 41
71.00000000000001
 46
0.0
 71
     1
 72
     5
  1
MONOROTAIA ALLUMINIO
  7
Stile testo6
 73
     1
 44
1.0
  0
XRECORD
  5
607
102
{ACAD_REACTORS
330
474
102
}
330
474
100
AcDbXrecord
280
     1
102
ACAD_MATT_HEIGHT
140
2.006599903106689
  0
XRECORD
  5
60A
102
{ACAD_REACTORS
330
477
102
}
330
477
100
AcDbXrecord
280
     1
 70
     4
 70
     0
 70
     0
 40
1.0
  2
Denominazione_2
  1
Embedded Object
 10
11.0
 20
63.0
 30
0.0
 40
2.006599903106689
 41
71.00000000000001
 46
0.0
 71
     1
 72
     5
  1

  7
Stile testo6
 73
     1
 44
1.0
  0
XRECORD
  5
609
102
{ACAD_REACTORS
330
477
102
}
330
477
100
AcDbXrecord
280
     1
102
ACAD_MATT_HEIGHT
140
2.006599903106689
  0
XRECORD
  5
60C
102
{ACAD_REACTORS
330
47A
102
}
330
47A
100
AcDbXrecord
280
     1
 70
     4
 70
     0
 70
     0
 40
1.0
  2
CODICE_DISEGNO
  1
Embedded Object
 10
97.25000000000001
 20
63.50000000000001
 30
0.0
 40
3.50519984960556
 41
28.5
 46
0.0
 71
     5
 72
     5
  1
\W0.7500;CGA-345-P
  7
Stile testo135
 73
     1
 44
1.0
  0
XRECORD
  5
60B
102
{ACAD_REACTORS
330
47A
102
}
330
47A
100
AcDbXrecord
280
     1
102
ACAD_MATT_HEIGHT
140
3.50519984960556
  0
XRECORD
  5
60E
102
{ACAD_REACTORS
330
47D
102
}
330
47D
100
AcDbXrecord
280
     1
 70
     4
 70
     0
 70
     0
 40
1.0
  2
Materiale_1
  1
Embedded Object
 10
144.75
 20
65.24632405268551
 30
0.0
 40
2.006599903106689
 41
63.50000000000001
 46
0.0
 71
     5
 72
     5
  1
ALLUMINIO EN AW-6060 - T66
  7
Stile testo6
 73
     1
 44
1.0
  0
XRECORD
  5
60D
102
{ACAD_REACTORS
330
47D
102
}
330
47D
100
AcDbXrecord
280
     1
102
ACAD_MATT_HEIGHT
140
2.006599903106689
  0
XRECORD
  5
610
102
{ACAD_REACTORS
330
480
102
}
330
480
100
AcDbXrecord
280
     1
 70
     4
 70
     0
 70
     0
 40
1.0
  2
Materiale_2
  1
Embedded Object
 10
144.809961390817
 20
61.5
 30
0.0
 40
2.006599903106689
 41
65.0
 46
0.0
 71
     5
 72
     5
  1

  7
Stile testo6
 73
     1
 44
1.0
  0
XRECORD
  5
60F
102
{ACAD_REACTORS
330
480
102
}
330
480
100
AcDbXrecord
280
     1
102
ACAD_MATT_HEIGHT
140
2.006599903106689
  0
XRECORD
  5
612
102
{ACAD_REACTORS
330
483
102
}
330
483
100
AcDbXrecord
280
     1
 70
     4
 70
     0
 70
     0
 40
1.0
  2
CODICE_MATERIALE
  1
Embedded Object
 10
188.5
 20
63.5
 30
0.0
 40
2.006599903106689
 41
23.00000000000001
 46
0.0
 71
     5
 72
     5
  1

  7
Stile testo6
 73
     1
 44
1.0
  0
XRECORD
  5
611
102
{ACAD_REACTORS
330
483
102
}
330
483
100
AcDbXrecord
280
     1
102
ACAD_MATT_HEIGHT
140
2.006599903106689
  0
XRECORD
  5
614
102
{ACAD_REACTORS
330
486
102
}
330
486
100
AcDbXrecord
280
     1
 70
     4
 70
     0
 70
     0
 40
1.0
  2
PESO_UNITARIO_KG
  1
Embedded Object
 10
97.05039695754834
 20
48.4920608646265
 30
0.0
 40
2.489199936389923
 41
26.99999999999999
 46
0.0
 71
     5
 72
     5
  1

  7
Stile testo15
 73
     1
 44
1.0
  0
XRECORD
  5
613
102
{ACAD_REACTORS
330
486
102
}
330
486
100
AcDbXrecord
280
     1
102
ACAD_MATT_HEIGHT
140
2.489199936389923
  0
XRECORD
  5
616
102
{ACAD_REACTORS
330
489
102
}
330
489
100
AcDbXrecord
280
     1
 70
     4
 70
     0
 70
     0
 40
1.0
  2
TRATTAMENTO_1
  1
Embedded Object
 10
132.6521050609213
 20
53.48089266404504
 30
0.0
 40
2.489199936389923
 41
46.5
 46
0.0
 71
     1
 72
     5
  1

  7
Stile testo15
 73
     1
 44
1.0
  0
XRECORD
  5
615
102
{ACAD_REACTORS
330
489
102
}
330
489
100
AcDbXrecord
280
     1
102
ACAD_MATT_HEIGHT
140
2.489199936389923
  0
XRECORD
  5
618
102
{ACAD_REACTORS
330
48C
102
}
330
48C
100
AcDbXrecord
280
     1
 70
     4
 70
     0
 70
     0
 40
1.0
  2
TRATTAMENTO_2
  1
Embedded Object
 10
113.0632687693352
 20
49.98769965437094
 30
0.0
 40
2.489199936389923
 41
63.0
 46
0.0
 71
     1
 72
     5
  1

  7
Stile testo15
 73
     1
 44
1.0
  0
XRECORD
  5
617
102
{ACAD_REACTORS
330
48C
102
}
330
48C
100
AcDbXrecord
280
     1
102
ACAD_MATT_HEIGHT
140
2.489199936389923
  0
XRECORD
  5
61A
102
{ACAD_REACTORS
330
48F
102
}
330
48F
100
AcDbXrecord
280
     1
 70
     4
 70
     0
 70
     0
 40
1.0
  2
COEFFICIENTE_D'IMPEGO
  1
Embedded Object
 10
188.5523258958931
 20
48.62644459325678
 30
0.0
 40
2.489199936389923
 41
21.00000000000001
 46
0.0
 71
     5
 72
     5
  1

  7
Stile testo15
 73
     1
 44
1.0
  0
XRECORD
  5
619
102
{ACAD_REACTORS
330
48F
102
}
330
48F
100
AcDbXrecord
280
     1
102
ACAD_MATT_HEIGHT
140
2.489199936389923
  0
XRECORD
  5
61C
102
{ACAD_REACTORS
330
492
102
}
330
492
100
AcDbXrecord
280
     1
 70
     4
 70
     0
 70
     0
 40
1.0
  2
SCALA
  1
Embedded Object
 10
97.25000000000001
 20
41.0
 30
0.0
 40
2.489199936389923
 41
26.5
 46
0.0
 71
     5
 72
     5
  1
1:1
  7
Stile testo15
 73
     1
 44
1.0
  0
XRECORD
  5
61B
102
{ACAD_REACTORS
330
492
102
}
330
492
100
AcDbXrecord
280
     1
102
ACAD_MATT_HEIGHT
140
2.489199936389923
  0
XRECORD
  5
61E
102
{ACAD_REACTORS
330
495
102
}
330
495
100
AcDbXrecord
280
     1
 70
     4
 70
     0
 70
     0
 40
1.0
  2
FOGLIO
  1
Embedded Object
 10
119.1976741041069
 20
40.40294218049127
 30
0.0
 40
2.489199936389923
 41
13.50000000000001
 46
0.0
 71
     5
 72
     5
  1
A3
  7
Stile testo15
 73
     1
 44
1.0
  0
XRECORD
  5
61D
102
{ACAD_REACTORS
330
495
102
}
330
495
100
AcDbXrecord
280
     1
102
ACAD_MATT_HEIGHT
140
2.489199936389923
  0
XRECORD
  5
620
102
{ACAD_REACTORS
330
498
102
}
330
498
100
AcDbXrecord
280
     1
 70
     4
 70
     0
 70
     0
 40
1.0
  2
DISEGNATO
  1
Embedded Object
 10
127.5
 20
41.5
 30
0.0
 40
2.489199936389923
 41
31.5
 46
0.0
 71
     1
 72
     5
  1
MOCELLIN A.
  7
Stile testo15
 73
     1
 44
1.0
  0
XRECORD
  5
61F
102
{ACAD_REACTORS
330
498
102
}
330
498
100
AcDbXrecord
280
     1
102
ACAD_MATT_HEIGHT
140
2.489199936389923
  0
XRECORD
  5
622
102
{ACAD_REACTORS
330
49B
102
}
330
49B
100
AcDbXrecord
280
     1
 70
     4
 70
     0
 70
     0
 40
1.0
  2
DATA
  1
Embedded Object
 10
168.25
 20
40.5
 30
0.0
 40
2.489199936389923
 41
15.5
 46
0.0
 71
     5
 72
     5
  1
17/10/2005
  7
Stile testo15
 73
     1
 44
1.0
  0
XRECORD
  5
621
102
{ACAD_REACTORS
330
49B
102
}
330
49B
100
AcDbXrecord
280
     1
102
ACAD_MATT_HEIGHT
140
2.489199936389923
  0
XRECORD
  5
624
102
{ACAD_REACTORS
330
49E
102
}
330
49E
100
AcDbXrecord
280
     1
 70
     4
 70
     0
 70
     0
 40
1.0
  2
DATA
  1
Embedded Object
 10
168.25
 20
32.75
 30
0.0
 40
2.489199936389923
 41
15.5
 46
0.0
 71
     5
 72
     5
  1

  7
Stile testo15
 73
     1
 44
1.0
  0
XRECORD
  5
623
102
{ACAD_REACTORS
330
49E
102
}
330
49E
100
AcDbXrecord
280
     1
102
ACAD_MATT_HEIGHT
140
2.489199936389923
  0
XRECORD
  5
626
102
{ACAD_REACTORS
330
4A1
102
}
330
4A1
100
AcDbXrecord
280
     1
 70
     4
 70
     0
 70
     0
 40
1.0
  2
DATA
  1
Embedded Object
 10
168.25
 20
24.75
 30
0.0
 40
2.489199936389923
 41
15.5
 46
0.0
 71
     5
 72
     5
  1

  7
Stile testo15
 73
     1
 44
1.0
  0
XRECORD
  5
625
102
{ACAD_REACTORS
330
4A1
102
}
330
4A1
100
AcDbXrecord
280
     1
102
ACAD_MATT_HEIGHT
140
2.489199936389923
  0
XRECORD
  5
628
102
{ACAD_REACTORS
330
4A4
102
}
330
4A4
100
AcDbXrecord
280
     1
 70
     4
 70
     0
 70
     0
 40
1.0
  2
NUMERO_ARTICOLO
  1
Embedded Object
 10
137.8158294861797
 20
21.53904977834278
 30
0.0
 40
2.489199936389923
 41
63.00000000000003
 46
0.0
 71
     1
 72
     5
  1

  7
Stile testo15
 73
     1
 44
1.0
  0
XRECORD
  5
627
102
{ACAD_REACTORS
330
4A4
102
}
330
4A4
100
AcDbXrecord
280
     1
102
ACAD_MATT_HEIGHT
140
2.489199936389923
  0
XRECORD
  5
62A
102
{ACAD_REACTORS
330
4A7
102
}
330
4A7
100
AcDbXrecord
280
     1
 70
     4
 70
     0
 70
     0
 40
1.0
  2
NUMERO_ARTICOLO
  1
Embedded Object
 10
127.1848152468796
 20
17.63978885077316
 30
0.0
 40
2.489199936389923
 41
71.00000000000001
 46
0.0
 71
     1
 72
     5
  1

  7
Stile testo15
 73
     1
 44
1.0
  0
XRECORD
  5
629
102
{ACAD_REACTORS
330
4A7
102
}
330
4A7
100
AcDbXrecord
280
     1
102
ACAD_MATT_HEIGHT
140
2.489199936389923
  0
XRECORD
  5
62C
102
{ACAD_REACTORS
330
4AA
102
}
330
4AA
100
AcDbXrecord
280
     1
 70
     4
 70
     0
 70
     0
 40
1.0
  2
ATTREZZAT._1
  1
Embedded Object
 10
188.5
 20
40.5
 30
0.0
 40
2.489199936389923
 41
21.00000000000001
 46
0.0
 71
     5
 72
     5
  1

  7
Stile testo15
 73
     1
 44
1.0
  0
XRECORD
  5
62B
102
{ACAD_REACTORS
330
4AA
102
}
330
4AA
100
AcDbXrecord
280
     1
102
ACAD_MATT_HEIGHT
140
2.489199936389923
  0
XRECORD
  5
62E
102
{ACAD_REACTORS
330
4AD
102
}
330
4AD
100
AcDbXrecord
280
     1
 70
     4
 70
     0
 70
     0
 40
1.0
  2
ATTREZZAT.2
  1
Embedded Object
 10
188.5
 20
32.5
 30
0.0
 40
2.489199936389923
 41
21.00000000000001
 46
0.0
 71
     5
 72
     5
  1

  7
Stile testo15
 73
     1
 44
1.0
  0
XRECORD
  5
62D
102
{ACAD_REACTORS
330
4AD
102
}
330
4AD
100
AcDbXrecord
280
     1
102
ACAD_MATT_HEIGHT
140
2.489199936389923
  0
XRECORD
  5
630
102
{ACAD_REACTORS
330
4B0
102
}
330
4B0
100
AcDbXrecord
280
     1
 70
     4
 70
     0
 70
     0
 40
1.0
  2
ATTREZZAT.3
  1
Embedded Object
 10
188.5
 20
24.5
 30
0.0
 40
2.489199936389923
 41
21.00000000000001
 46
0.0
 71
     5
 72
     5
  1

  7
Stile testo15
 73
     1
 44
1.0
  0
XRECORD
  5
62F
102
{ACAD_REACTORS
330
4B0
102
}
330
4B0
100
AcDbXrecord
280
     1
102
ACAD_MATT_HEIGHT
140
2.489199936389923
  0
XRECORD
  5
632
102
{ACAD_REACTORS
330
4B3
102
}
330
4B3
100
AcDbXrecord
280
     1
 70
     4
 70
     0
 70
     0
 40
1.0
  2
SOSTITUISCE_IL
  1
Embedded Object
 10
22.0
 20
41.0
 30
0.0
 40
2.489199936389923
 41
22.0
 46
0.0
 71
     5
 72
     5
  1

  7
Stile testo15
 73
     1
 44
1.0
  0
XRECORD
  5
631
102
{ACAD_REACTORS
330
4B3
102
}
330
4B3
100
AcDbXrecord
280
     1
102
ACAD_MATT_HEIGHT
140
2.489199936389923
  0
XRECORD
  5
634
102
{ACAD_REACTORS
330
4B6
102
}
330
4B6
100
AcDbXrecord
280
     1
 70
     4
 70
     0
 70
     0
 40
1.0
  2
SOSTITUITO_DAL
  1
Embedded Object
 10
46.5
 20
41.0
 30
0.0
 40
2.489199936389923
 41
22.0
 46
0.0
 71
     5
 72
     5
  1

  7
Stile testo15
 73
     1
 44
1.0
  0
XRECORD
  5
633
102
{ACAD_REACTORS
330
4B6
102
}
330
4B6
100
AcDbXrecord
280
     1
102
ACAD_MATT_HEIGHT
140
2.489199936389923
  0
LAYOUT
  5
76
102
{ACAD_XDICTIONARY
360
661
102
}
102
{ACAD_REACTORS
330
6D
102
}
330
6D
100
AcDbPlotSettings
  1

  2

  4

  6

 40
0.0
 41
0.0
 42
0.0
 43
0.0
 44
0.0
 45
0.0
 46
0.0
 47
0.0
 48
0.0
 49
0.0
140
0.0
141
0.0
142
1.0
143
1.0
 70
   688
 72
     0
 73
     0
 74
     5
  7

 75
    16
147
1.0
148
0.0
149
0.0
100
AcDbLayout
  1
Layout1
 70
     1
 71
     1
 10
0.0
 20
0.0
 11
420.0
 21
297.0
 12
0.0
 22
0.0
 32
0.0
 14
0.0
 24
0.0
 34
0.0
 15
420.0
 25
297.0
 35
0.0
146
0.0
 13
0.0
 23
0.0
 33
0.0
 16
1.0
 26
0.0
 36
0.0
 17
0.0
 27
1.0
 37
0.0
 76
     0
330
73
  0
LAYOUT
  5
7E
102
{ACAD_XDICTIONARY
360
665
102
}
102
{ACAD_REACTORS
330
6D
102
}
330
6D
100
AcDbPlotSettings
  1

  2

  4

  6

 40
0.0
 41
0.0
 42
0.0
 43
0.0
 44
0.0
 45
0.0
 46
0.0
 47
0.0
 48
0.0
 49
0.0
140
0.0
141
0.0
142
1.0
143
1.0
 70
   688
 72
     0
 73
     0
 74
     5
  7

 75
    16
147
1.0
148
0.0
149
0.0
100
AcDbLayout
  1
Layout2
 70
     1
 71
     2
 10
0.0
 20
0.0
 11
12.0
 21
9.0
 12
0.0
 22
0.0
 32
0.0
 14
0.0
 24
0.0
 34
0.0
 15
0.0
 25
0.0
 35
0.0
146
0.0
 13
0.0
 23
0.0
 33
0.0
 16
1.0
 26
0.0
 36
0.0
 17
0.0
 27
1.0
 37
0.0
 76
     0
330
7B
  0
LAYOUT
  5
7A
102
{ACAD_XDICTIONARY
360
663
102
}
102
{ACAD_REACTORS
330
6D
102
}
330
6D
100
AcDbPlotSettings
  1

  2

  4

  6

 40
0.0
 41
0.0
 42
0.0
 43
0.0
 44
0.0
 45
0.0
 46
0.0
 47
0.0
 48
0.0
 49
0.0
140
0.0
141
0.0
142
1.0
143
1.0
 70
  1712
 72
     0
 73
     0
 74
     0
  7

 75
     0
147
1.0
148
0.0
149
0.0
100
AcDbLayout
  1
Model
 70
     1
 71
     0
 10
0.0
 20
0.0
 11
12.0
 21
9.0
 12
0.0
 22
0.0
 32
0.0
 14
0.0
 24
0.0
 34
0.0
 15
0.0
 25
0.0
 35
0.0
146
0.0
 13
0.0
 23
0.0
 33
0.0
 16
1.0
 26
0.0
 36
0.0
 17
0.0
 27
1.0
 37
0.0
 76
     0
330
77
331
62
  0
MATERIAL
  5
19
102
{ACAD_XDICTIONARY
360
1A
102
}
102
{ACAD_REACTORS
330
10
102
}
330
10
100
AcDbMaterial
  1
ByBlock
 72
     0
 43
0.0208333333333333
 43
0.0
 43
0.0
 43
0.0
 43
0.0
 43
0.0208333333333333
 43
0.0
 43
0.0
 43
0.0
 43
0.0
 43
1.0
 43
0.0
 43
0.0
 43
0.0
 43
0.0
 43
1.0
 77
     0
 47
0.0208333333333333
 47
0.0
 47
0.0
 47
0.0
 47
0.0
 47
0.0208333333333333
 47
0.0
 47
0.0
 47
0.0
 47
0.0
 47
1.0
 47
0.0
 47
0.0
 47
0.0
 47
0.0
 47
1.0
171
     0
 49
0.0208333333333333
 49
0.0
 49
0.0
 49
0.0
 49
0.0
 49
0.0208333333333333
 49
0.0
 49
0.0
 49
0.0
 49
0.0
 49
1.0
 49
0.0
 49
0.0
 49
0.0
 49
0.0
 49
1.0
175
     0
142
0.0208333333333333
142
0.0
142
0.0
142
0.0
142
0.0
142
0.0208333333333333
142
0.0
142
0.0
142
0.0
142
0.0
142
1.0
142
0.0
142
0.0
142
0.0
142
0.0
142
1.0
179
     0
144
0.0208333333333333
144
0.0
144
0.0
144
0.0
144
0.0
144
0.0208333333333333
144
0.0
144
0.0
144
0.0
144
0.0
144
1.0
144
0.0
144
0.0
144
0.0
144
0.0
144
1.0
147
0.0208333333333333
147
0.0
147
0.0
147
0.0
147
0.0
147
0.0208333333333333
147
0.0
147
0.0
147
0.0
147
0.0
147
1.0
147
0.0
147
0.0
147
0.0
147
0.0
147
1.0
  0
MATERIAL
  5
11
102
{ACAD_XDICTIONARY
360
12
102
}
102
{ACAD_REACTORS
330
10
102
}
330
10
100
AcDbMaterial
  1
ByLayer
 72
     0
 43
0.0208333333333333
 43
0.0
 43
0.0
 43
0.0
 43
0.0
 43
0.0208333333333333
 43
0.0
 43
0.0
 43
0.0
 43
0.0
 43
1.0
 43
0.0
 43
0.0
 43
0.0
 43
0.0
 43
1.0
 77
     0
 47
0.0208333333333333
 47
0.0
 47
0.0
 47
0.0
 47
0.0
 47
0.0208333333333333
 47
0.0
 47
0.0
 47
0.0
 47
0.0
 47
1.0
 47
0.0
 47
0.0
 47
0.0
 47
0.0
 47
1.0
171
     0
 49
0.0208333333333333
 49
0.0
 49
0.0
 49
0.0
 49
0.0
 49
0.0208333333333333
 49
0.0
 49
0.0
 49
0.0
 49
0.0
 49
1.0
 49
0.0
 49
0.0
 49
0.0
 49
0.0
 49
1.0
175
     0
142
0.0208333333333333
142
0.0
142
0.0
142
0.0
142
0.0
142
0.0208333333333333
142
0.0
142
0.0
142
0.0
142
0.0
142
1.0
142
0.0
142
0.0
142
0.0
142
0.0
142
1.0
179
     0
144
0.0208333333333333
144
0.0
144
0.0
144
0.0
144
0.0
144
0.0208333333333333
144
0.0
144
0.0
144
0.0
144
0.0
144
1.0
144
0.0
144
0.0
144
0.0
144
0.0
144
1.0
147
0.0208333333333333
147
0.0
147
0.0
147
0.0
147
0.0
147
0.0208333333333333
147
0.0
147
0.0
147
0.0
147
0.0
147
1.0
147
0.0
147
0.0
147
0.0
147
0.0
147
1.0
  0
MATERIAL
  5
21
102
{ACAD_XDICTIONARY
360
22
102
}
102
{ACAD_REACTORS
330
10
102
}
330
10
100
AcDbMaterial
  1
Global
 72
     0
 43
0.0208333333333333
 43
0.0
 43
0.0
 43
0.0
 43
0.0
 43
0.0208333333333333
 43
0.0
 43
0.0
 43
0.0
 43
0.0
 43
1.0
 43
0.0
 43
0.0
 43
0.0
 43
0.0
 43
1.0
 77
     0
 47
0.0208333333333333
 47
0.0
 47
0.0
 47
0.0
 47
0.0
 47
0.0208333333333333
 47
0.0
 47
0.0
 47
0.0
 47
0.0
 47
1.0
 47
0.0
 47
0.0
 47
0.0
 47
0.0
 47
1.0
171
     0
 49
0.0208333333333333
 49
0.0
 49
0.0
 49
0.0
 49
0.0
 49
0.0208333333333333
 49
0.0
 49
0.0
 49
0.0
 49
0.0
 49
1.0
 49
0.0
 49
0.0
 49
0.0
 49
0.0
 49
1.0
175
     0
142
0.0208333333333333
142
0.0
142
0.0
142
0.0
142
0.0
142
0.0208333333333333
142
0.0
142
0.0
142
0.0
142
0.0
142
1.0
142
0.0
142
0.0
142
0.0
142
0.0
142
1.0
179
     0
144
0.0208333333333333
144
0.0
144
0.0
144
0.0
144
0.0
144
0.0208333333333333
144
0.0
144
0.0
144
0.0
144
0.0
144
1.0
144
0.0
144
0.0
144
0.0
144
0.0
144
1.0
147
0.0208333333333333
147
0.0
147
0.0
147
0.0
147
0.0
147
0.0208333333333333
147
0.0
147
0.0
147
0.0
147
0.0
147
1.0
147
0.0
147
0.0
147
0.0
147
0.0
147
1.0
  0
MLEADERSTYLE
  5
72
102
{ACAD_REACTORS
330
71
102
}
330
71
100
AcDbMLeaderStyle
170
     2
171
     1
172
     0
 90
        2
 40
0.0
 41
0.0
173
     1
 91
-1056964608
340
66
 92
       -2
290
     1
 42
0.09
291
     1
 43
0.36
  3
Standard
 44
0.18
300

342
60
174
     1
178
     6
175
     1
176
     0
 93
-1056964608
 45
0.18
292
     0
297
     0
 46
0.18
 94
-1056964608
 47
1.0
 49
1.0
140
1.0
293
     1
141
0.0
294
     1
177
     0
142
1.0
295
     0
296
     0
143
0.125
1001
ACAD_MLEADERVER
1070
     2
  0
MLINESTYLE
  5
6B
102
{ACAD_REACTORS
330
6A
102
}
330
6A
100
AcDbMlineStyle
  2
STANDARD
 70
     0
  3

 62
   256
 51
90.0
 52
90.0
 71
     2
 49
0.5
 62
   256
  6
BYLAYER
 49
-0.5
 62
   256
  6
BYLAYER
  0
ACDBPLACEHOLDER
  5
F
102
{ACAD_REACTORS
330
E
102
}
330
E
  0
SCALE
  5
3E
102
{ACAD_REACTORS
330
3D
102
}
330
3D
100
AcDbScale
 70
     0
300
1:1
140
1.0
141
1.0
290
     1
  0
SCALE
  5
3F
102
{ACAD_REACTORS
330
3D
102
}
330
3D
100
AcDbScale
 70
     0
300
1:2
140
1.0
141
2.0
290
     0
  0
SCALE
  5
40
102
{ACAD_REACTORS
330
3D
102
}
330
3D
100
AcDbScale
 70
     0
300
1:4
140
1.0
141
4.0
290
     0
  0
SCALE
  5
41
102
{ACAD_REACTORS
330
3D
102
}
330
3D
100
AcDbScale
 70
     0
300
1:5
140
1.0
141
5.0
290
     0
  0
SCALE
  5
42
102
{ACAD_REACTORS
330
3D
102
}
330
3D
100
AcDbScale
 70
     0
300
1:8
140
1.0
141
8.0
290
     0
  0
SCALE
  5
43
102
{ACAD_REACTORS
330
3D
102
}
330
3D
100
AcDbScale
 70
     0
300
1:10
140
1.0
141
10.0
290
     0
  0
SCALE
  5
44
102
{ACAD_REACTORS
330
3D
102
}
330
3D
100
AcDbScale
 70
     0
300
1:16
140
1.0
141
16.0
290
     0
  0
SCALE
  5
45
102
{ACAD_REACTORS
330
3D
102
}
330
3D
100
AcDbScale
 70
     0
300
1:20
140
1.0
141
20.0
290
     0
  0
SCALE
  5
46
102
{ACAD_REACTORS
330
3D
102
}
330
3D
100
AcDbScale
 70
     0
300
1:30
140
1.0
141
30.0
290
     0
  0
SCALE
  5
47
102
{ACAD_REACTORS
330
3D
102
}
330
3D
100
AcDbScale
 70
     0
300
1:40
140
1.0
141
40.0
290
     0
  0
SCALE
  5
48
102
{ACAD_REACTORS
330
3D
102
}
330
3D
100
AcDbScale
 70
     0
300
1:50
140
1.0
141
50.0
290
     0
  0
SCALE
  5
49
102
{ACAD_REACTORS
330
3D
102
}
330
3D
100
AcDbScale
 70
     0
300
1:100
140
1.0
141
100.0
290
     0
  0
SCALE
  5
4A
102
{ACAD_REACTORS
330
3D
102
}
330
3D
100
AcDbScale
 70
     0
300
2:1
140
2.0
141
1.0
290
     0
  0
SCALE
  5
4B
102
{ACAD_REACTORS
330
3D
102
}
330
3D
100
AcDbScale
 70
     0
300
4:1
140
4.0
141
1.0
290
     0
  0
SCALE
  5
4C
102
{ACAD_REACTORS
330
3D
102
}
330
3D
100
AcDbScale
 70
     0
300
8:1
140
8.0
141
1.0
290
     0
  0
SCALE
  5
4D
102
{ACAD_REACTORS
330
3D
102
}
330
3D
100
AcDbScale
 70
     0
300
10:1
140
10.0
141
1.0
290
     0
  0
SCALE
  5
4E
102
{ACAD_REACTORS
330
3D
102
}
330
3D
100
AcDbScale
 70
     0
300
100:1
140
100.0
141
1.0
290
     0
  0
SCALE
  5
4F
102
{ACAD_REACTORS
330
3D
102
}
330
3D
100
AcDbScale
 70
     0
300
1/128" = 1'-0"
140
0.0078125
141
12.0
290
     0
  0
SCALE
  5
50
102
{ACAD_REACTORS
330
3D
102
}
330
3D
100
AcDbScale
 70
     0
300
1/64" = 1'-0"
140
0.015625
141
12.0
290
     0
  0
SCALE
  5
51
102
{ACAD_REACTORS
330
3D
102
}
330
3D
100
AcDbScale
 70
     0
300
1/32" = 1'-0"
140
0.03125
141
12.0
290
     0
  0
SCALE
  5
52
102
{ACAD_REACTORS
330
3D
102
}
330
3D
100
AcDbScale
 70
     0
300
1/16" = 1'-0"
140
0.0625
141
12.0
290
     0
  0
SCALE
  5
53
102
{ACAD_REACTORS
330
3D
102
}
330
3D
100
AcDbScale
 70
     0
300
3/32" = 1'-0"
140
0.09375
141
12.0
290
     0
  0
SCALE
  5
54
102
{ACAD_REACTORS
330
3D
102
}
330
3D
100
AcDbScale
 70
     0
300
1/8" = 1'-0"
140
0.125
141
12.0
290
     0
  0
SCALE
  5
55
102
{ACAD_REACTORS
330
3D
102
}
330
3D
100
AcDbScale
 70
     0
300
3/16" = 1'-0"
140
0.1875
141
12.0
290
     0
  0
SCALE
  5
56
102
{ACAD_REACTORS
330
3D
102
}
330
3D
100
AcDbScale
 70
     0
300
1/4" = 1'-0"
140
0.25
141
12.0
290
     0
  0
SCALE
  5
57
102
{ACAD_REACTORS
330
3D
102
}
330
3D
100
AcDbScale
 70
     0
300
3/8" = 1'-0"
140
0.375
141
12.0
290
     0
  0
SCALE
  5
58
102
{ACAD_REACTORS
330
3D
102
}
330
3D
100
AcDbScale
 70
     0
300
1/2" = 1'-0"
140
0.5
141
12.0
290
     0
  0
SCALE
  5
59
102
{ACAD_REACTORS
330
3D
102
}
330
3D
100
AcDbScale
 70
     0
300
3/4" = 1'-0"
140
0.75
141
12.0
290
     0
  0
SCALE
  5
5A
102
{ACAD_REACTORS
330
3D
102
}
330
3D
100
AcDbScale
 70
     0
300
1" = 1'-0"
140
1.0
141
12.0
290
     0
  0
SCALE
  5
5B
102
{ACAD_REACTORS
330
3D
102
}
330
3D
100
AcDbScale
 70
     0
300
1-1/2" = 1'-0"
140
1.5
141
12.0
290
     0
  0
SCALE
  5
5C
102
{ACAD_REACTORS
330
3D
102
}
330
3D
100
AcDbScale
 70
     0
300
3" = 1'-0"
140
3.0
141
12.0
290
     0
  0
SCALE
  5
5D
102
{ACAD_REACTORS
330
3D
102
}
330
3D
100
AcDbScale
 70
     0
300
6" = 1'-0"
140
6.0
141
12.0
290
     0
  0
SCALE
  5
5E
102
{ACAD_REACTORS
330
3D
102
}
330
3D
100
AcDbScale
 70
     0
300
1'-0" = 1'-0"
140
12.0
141
12.0
290
     0
  0
TABLESTYLE
  5
70
102
{ACAD_XDICTIONARY
360
457
102
}
102
{ACAD_REACTORS
330
6F
102
}
330
6F
100
AcDbTableStyle
  3
Standard
 70
     0
 71
     0
 40
0.06
 41
0.06
280
     0
281
     0
  7
Standard
140
0.18
170
     2
 62
     0
 63
     7
283
     0
274
    -2
284
     1
 64
     0
275
    -2
285
     1
 65
     0
276
    -2
286
     1
 66
     0
277
    -2
287
     1
 67
     0
278
    -2
288
     1
 68
     0
279
    -2
289
     1
 69
     0
  7
Standard
140
0.25
170
     5
 62
     0
 63
     7
283
     0
274
    -2
284
     1
 64
     0
275
    -2
285
     1
 65
     0
276
    -2
286
     1
 66
     0
277
    -2
287
     1
 67
     0
278
    -2
288
     1
 68
     0
279
    -2
289
     1
 69
     0
  7
Standard
140
0.18
170
     5
 62
     0
 63
     7
283
     0
274
    -2
284
     1
 64
     0
275
    -2
285
     1
 65
     0
276
    -2
286
     1
 66
     0
277
    -2
287
     1
 67
     0
278
    -2
288
     1
 68
     0
279
    -2
289
     1
 69
     0
  0
VISUALSTYLE
  5
2F
102
{ACAD_XDICTIONARY
360
644
102
}
102
{ACAD_REACTORS
330
29
102
}
330
29
100
AcDbVisualStyle
  2
2dWireframe
 70
     4
 71
     0
 72
     2
 73
     0
 90
        0
 40
-0.6
 41
-30.0
 62
     5
 63
     7
 74
     1
 91
        4
 64
     7
 65
   257
 75
     1
175
     1
 42
1.0
 92
        0
 66
   257
 43
1.0
 76
     1
 77
     6
 78
     2
 67
     7
 79
     5
170
     0
171
     0
290
     0
174
     0
 93
        1
 44
0.0
173
     0
291
     0
 45
0.0
1001
ACAD
1000
AcDbSavedByObjectVersion
1070
     0
  0
VISUALSTYLE
  5
31
102
{ACAD_XDICTIONARY
360
648
102
}
102
{ACAD_REACTORS
330
29
102
}
330
29
100
AcDbVisualStyle
  2
3D Hidden
 70
     6
 71
     1
 72
     2
 73
     2
 90
        0
 40
-0.6
 41
-30.0
 62
     5
 63
     7
 74
     2
 91
        2
 64
     7
 65
   257
 75
     2
175
     1
 42
179.0
 92
        0
 66
   257
 43
1.0
 76
     1
 77
     6
 78
     2
 67
     7
 79
     3
170
     0
171
     0
290
     0
174
     0
 93
        1
 44
0.0
173
     0
291
     0
 45
0.0
1001
ACAD
1000
AcDbSavedByObjectVersion
1070
     0
  0
VISUALSTYLE
  5
30
102
{ACAD_XDICTIONARY
360
646
102
}
102
{ACAD_REACTORS
330
29
102
}
330
29
100
AcDbVisualStyle
  2
3dWireframe
 70
     5
 71
     0
 72
     2
 73
     0
 90
        0
 40
-0.6
 41
-30.0
 62
     5
 63
     7
 74
     1
 91
        4
 64
     7
 65
   257
 75
     1
175
     1
 42
1.0
 92
        0
 66
   257
 43
1.0
 76
     1
 77
     6
 78
     2
 67
     7
 79
     5
170
     0
171
     0
290
     0
174
     0
 93
        1
 44
0.0
173
     0
291
     0
 45
0.0
1001
ACAD
1000
AcDbSavedByObjectVersion
1070
     0
  0
VISUALSTYLE
  5
2E
102
{ACAD_XDICTIONARY
360
642
102
}
102
{ACAD_REACTORS
330
29
102
}
330
29
100
AcDbVisualStyle
  2
Basic
 70
     7
 71
     1
 72
     0
 73
     1
 90
        0
 40
-0.6
 41
-30.0
 62
     5
 63
     7
 74
     0
 91
        4
 64
     7
 65
   257
 75
     1
175
     1
 42
1.0
 92
        8
 66
     7
 43
1.0
 76
     1
 77
     6
 78
     2
 67
     7
 79
     5
170
     0
171
     0
290
     0
174
     0
 93
        1
 44
0.0
173
     0
291
     1
 45
0.0
1001
ACAD
1000
AcDbSavedByObjectVersion
1070
     0
  0
VISUALSTYLE
  5
35
102
{ACAD_XDICTIONARY
360
650
102
}
102
{ACAD_REACTORS
330
29
102
}
330
29
100
AcDbVisualStyle
  2
Brighten
 70
    12
 71
     2
 72
     2
 73
     0
 90
        0
 40
-0.6
 41
-30.0
 62
     5
 63
     7
 74
     1
 91
        4
 64
     7
 65
   257
 75
     1
175
     1
 42
1.0
 92
        8
 66
     7
 43
1.0
 76
     1
 77
     6
 78
     2
 67
     7
 79
     5
170
     0
171
     0
290
     0
174
     0
 93
        1
 44
50.0
173
     0
291
     1
 45
0.0
1001
ACAD
1000
AcDbSavedByObjectVersion
1070
     0
  0
VISUALSTYLE
  5
39
102
{ACAD_XDICTIONARY
360
658
102
}
102
{ACAD_REACTORS
330
29
102
}
330
29
100
AcDbVisualStyle
  2
ColorChange
 70
    16
 71
     2
 72
     2
 73
     3
 90
        0
 40
-0.6
 41
-30.0
 62
     5
 63
     8
 74
     1
 91
        4
 64
     7
 65
   257
 75
     1
175
     1
 42
1.0
 92
        8
 66
     8
 43
1.0
 76
     1
 77
     6
 78
     2
 67
     7
 79
     5
170
     0
171
     0
290
     0
174
     0
 93
        1
 44
0.0
173
     0
291
     1
 45
0.0
1001
ACAD
1000
AcDbSavedByObjectVersion
1070
     0
  0
VISUALSTYLE
  5
32
102
{ACAD_XDICTIONARY
360
64A
102
}
102
{ACAD_REACTORS
330
29
102
}
330
29
100
AcDbVisualStyle
  2
Conceptual
 70
     9
 71
     3
 72
     2
 73
     0
 90
        0
 40
-0.6
 41
-30.0
 62
     5
 63
     7
 74
     2
 91
        2
 64
     7
 65
   257
 75
     1
175
     1
 42
179.0
 92
        8
 66
     7
 43
1.0
 76
     1
 77
     6
 78
     2
 67
     7
 79
     3
170
     0
171
     0
290
     0
174
     0
 93
        1
 44
0.0
173
     0
291
     0
 45
0.0
1001
ACAD
1000
AcDbSavedByObjectVersion
1070
     0
  0
VISUALSTYLE
  5
34
102
{ACAD_XDICTIONARY
360
64E
102
}
102
{ACAD_REACTORS
330
29
102
}
330
29
100
AcDbVisualStyle
  2
Dim
 70
    11
 71
     2
 72
     2
 73
     0
 90
        0
 40
-0.6
 41
-30.0
 62
     5
 63
     7
 74
     1
 91
        4
 64
     7
 65
   257
 75
     1
175
     1
 42
1.0
 92
        8
 66
     7
 43
1.0
 76
     1
 77
     6
 78
     2
 67
     7
 79
     5
170
     0
171
     0
290
     0
174
     0
 93
        1
 44
-50.0
173
     0
291
     1
 45
0.0
1001
ACAD
1000
AcDbSavedByObjectVersion
1070
     0
  0
VISUALSTYLE
  5
3C
102
{ACAD_XDICTIONARY
360
65E
102
}
102
{ACAD_REACTORS
330
29
102
}
330
29
100
AcDbVisualStyle
  2
EdgeColorOff
 70
    22
 71
     2
 72
     2
 73
     0
 90
        0
 40
-0.6
 41
-30.0
 62
     5
 63
     7
 74
     1
 91
        4
 64
     7
 65
   257
 75
     1
175
     1
 42
1.0
 92
        8
 66
     7
 43
1.0
 76
     1
 77
     6
 78
     2
 67
     7
 79
     5
170
     0
171
     0
290
     0
174
     0
 93
        1
 44
0.0
173
     0
291
     1
 45
0.0
1001
ACAD
1000
AcDbSavedByObjectVersion
1070
     0
  0
VISUALSTYLE
  5
38
102
{ACAD_XDICTIONARY
360
656
102
}
102
{ACAD_REACTORS
330
29
102
}
330
29
100
AcDbVisualStyle
  2
Facepattern
 70
    15
 71
     2
 72
     2
 73
     0
 90
        0
 40
-0.6
 41
-30.0
 62
     5
 63
     7
 74
     1
 91
        4
 64
     7
 65
   257
 75
     1
175
     1
 42
1.0
 92
        8
 66
     7
 43
1.0
 76
     1
 77
     6
 78
     2
 67
     7
 79
     5
170
     0
171
     0
290
     0
174
     0
 93
        1
 44
0.0
173
     0
291
     1
 45
0.0
1001
ACAD
1000
AcDbSavedByObjectVersion
1070
     0
  0
VISUALSTYLE
  5
2A
102
{ACAD_XDICTIONARY
360
63A
102
}
102
{ACAD_REACTORS
330
29
102
}
330
29
100
AcDbVisualStyle
  2
Flat
 70
     0
 71
     2
 72
     1
 73
     1
 90
        2
 40
-0.6
 41
30.0
 62
     5
 63
     7
 74
     0
 91
        4
 64
     7
 65
   257
 75
     1
175
     1
 42
1.0
 92
        8
 66
     7
 43
1.0
 76
     1
 77
     6
 78
     2
 67
     7
 79
     5
170
     0
171
     0
290
     0
174
     0
 93
       13
 44
0.0
173
     0
291
     1
 45
0.0
1001
ACAD
1000
AcDbSavedByObjectVersion
1070
     0
  0
VISUALSTYLE
  5
2B
102
{ACAD_XDICTIONARY
360
63C
102
}
102
{ACAD_REACTORS
330
29
102
}
330
29
100
AcDbVisualStyle
  2
FlatWithEdges
 70
     1
 71
     2
 72
     1
 73
     1
 90
        2
 40
-0.6
 41
30.0
 62
     5
 63
     7
 74
     1
 91
        4
 64
     7
 65
   257
 75
     1
175
     1
 42
1.0
 92
        0
 66
   257
 43
1.0
 76
     1
 77
     6
 78
     2
 67
     7
 79
     5
170
     0
171
     0
290
     0
174
     0
 93
       13
 44
0.0
173
     0
291
     1
 45
0.0
1001
ACAD
1000
AcDbSavedByObjectVersion
1070
     0
  0
VISUALSTYLE
  5
2C
102
{ACAD_XDICTIONARY
360
63E
102
}
102
{ACAD_REACTORS
330
29
102
}
330
29
100
AcDbVisualStyle
  2
Gouraud
 70
     2
 71
     2
 72
     2
 73
     1
 90
        2
 40
-0.6
 41
30.0
 62
     5
 63
     7
 74
     0
 91
        4
 64
     7
 65
   257
 75
     1
175
     1
 42
1.0
 92
        0
 66
     7
 43
1.0
 76
     1
 77
     6
 78
     2
 67
     7
 79
     5
170
     0
171
     0
290
     0
174
     0
 93
       13
 44
0.0
173
     0
291
     1
 45
0.0
1001
ACAD
1000
AcDbSavedByObjectVersion
1070
     0
  0
VISUALSTYLE
  5
2D
102
{ACAD_XDICTIONARY
360
640
102
}
102
{ACAD_REACTORS
330
29
102
}
330
29
100
AcDbVisualStyle
  2
GouraudWithEdges
 70
     3
 71
     2
 72
     2
 73
     1
 90
        2
 40
-0.6
 41
30.0
 62
     5
 63
     7
 74
     1
 91
        4
 64
     7
 65
   257
 75
     1
175
     1
 42
1.0
 92
        0
 66
   257
 43
1.0
 76
     1
 77
     6
 78
     2
 67
     7
 79
     5
170
     0
171
     0
290
     0
174
     0
 93
       13
 44
0.0
173
     0
291
     1
 45
0.0
1001
ACAD
1000
AcDbSavedByObjectVersion
1070
     0
  0
VISUALSTYLE
  5
3A
102
{ACAD_XDICTIONARY
360
65A
102
}
102
{ACAD_REACTORS
330
29
102
}
330
29
100
AcDbVisualStyle
  2
JitterOff
 70
    20
 71
     2
 72
     2
 73
     0
 90
        0
 40
-0.6
 41
-30.0
 62
     5
 63
     7
 74
     1
 91
        4
 64
     7
 65
   257
 75
     1
175
     1
 42
1.0
 92
       10
 66
     7
 43
1.0
 76
     1
 77
     6
 78
     2
 67
     7
 79
     5
170
     0
171
     0
290
     0
174
     0
 93
        1
 44
0.0
173
     0
291
     1
 45
0.0
1001
ACAD
1000
AcDbSavedByObjectVersion
1070
     0
  0
VISUALSTYLE
  5
37
102
{ACAD_XDICTIONARY
360
654
102
}
102
{ACAD_REACTORS
330
29
102
}
330
29
100
AcDbVisualStyle
  2
Linepattern
 70
    14
 71
     2
 72
     2
 73
     0
 90
        0
 40
-0.6
 41
-30.0
 62
     5
 63
     7
 74
     1
 91
        4
 64
     7
 65
   257
 75
     7
175
     7
 42
1.0
 92
        8
 66
     7
 43
1.0
 76
     1
 77
     6
 78
     2
 67
     7
 79
     5
170
     0
171
     0
290
     0
174
     0
 93
        1
 44
0.0
173
     0
291
     1
 45
0.0
1001
ACAD
1000
AcDbSavedByObjectVersion
1070
     0
  0
VISUALSTYLE
  5
3B
102
{ACAD_XDICTIONARY
360
65C
102
}
102
{ACAD_REACTORS
330
29
102
}
330
29
100
AcDbVisualStyle
  2
OverhangOff
 70
    21
 71
     2
 72
     2
 73
     0
 90
        0
 40
-0.6
 41
-30.0
 62
     5
 63
     7
 74
     1
 91
        4
 64
     7
 65
   257
 75
     1
175
     1
 42
1.0
 92
        9
 66
     7
 43
1.0
 76
     1
 77
     6
 78
     2
 67
     7
 79
     5
170
     0
171
     0
290
     0
174
     0
 93
        1
 44
0.0
173
     0
291
     1
 45
0.0
1001
ACAD
1000
AcDbSavedByObjectVersion
1070
     0
  0
VISUALSTYLE
  5
33
102
{ACAD_XDICTIONARY
360
64C
102
}
102
{ACAD_REACTORS
330
29
102
}
330
29
100
AcDbVisualStyle
  2
Realistic
 70
     8
 71
     2
 72
     2
 73
     0
 90
        0
 40
-0.6
 41
-30.0
 62
     5
 63
     7
 74
     1
 91
        0
 64
     7
 65
   257
 75
     1
175
     1
 42
1.0
 92
        8
 66
     8
 43
1.0
 76
     1
 77
     6
 78
     2
 67
     7
 79
     5
170
     0
171
     0
290
     0
174
     0
 93
       13
 44
0.0
173
     0
291
     0
 45
0.0
1001
ACAD
1000
AcDbSavedByObjectVersion
1070
     0
  0
VISUALSTYLE
  5
36
102
{ACAD_XDICTIONARY
360
652
102
}
102
{ACAD_REACTORS
330
29
102
}
330
29
100
AcDbVisualStyle
  2
Thicken
 70
    13
 71
     2
 72
     2
 73
     0
 90
        0
 40
-0.6
 41
-30.0
 62
     5
 63
     7
 74
     1
 91
        4
 64
     7
 65
   257
 75
     1
175
     1
 42
1.0
 92
       12
 66
     7
 43
1.0
 76
     1
 77
     6
 78
     2
 67
     7
 79
     5
170
     0
171
     0
290
     0
174
     0
 93
        1
 44
0.0
173
     0
291
     1
 45
0.0
1001
ACAD
1000
AcDbSavedByObjectVersion
1070
     0
  0
DICTIONARYVAR
  5
549
102
{ACAD_REACTORS
330
545
102
}
330
545
100
DictionaryVariables
280
     0
  1
1:1
  0
DICTIONARYVAR
  5
547
102
{ACAD_REACTORS
330
545
102
}
330
545
100
DictionaryVariables
280
     0
  1
STANDARD
  0
DICTIONARYVAR
  5
546
102
{ACAD_REACTORS
330
545
102
}
330
545
100
DictionaryVariables
280
     0
  1
STANDARD
  0
DICTIONARYVAR
  5
550
102
{ACAD_REACTORS
330
545
102
}
330
545
100
DictionaryVariables
280
     0
  1
1
  0
DICTIONARYVAR
  5
54F
102
{ACAD_REACTORS
330
545
102
}
330
545
100
DictionaryVariables
280
     0
  1
1
  0
DICTIONARYVAR
  5
54E
102
{ACAD_REACTORS
330
545
102
}
330
545
100
DictionaryVariables
280
     0
  1
0
  0
DICTIONARYVAR
  5
54B
102
{ACAD_REACTORS
330
545
102
}
330
545
100
DictionaryVariables
280
     0
  1
0
  0
DICTIONARYVAR
  5
54C
102
{ACAD_REACTORS
330
545
102
}
330
545
100
DictionaryVariables
280
     0
  1
0
  0
DICTIONARYVAR
  5
54A
102
{ACAD_REACTORS
330
545
102
}
330
545
100
DictionaryVariables
280
     0
  1
2
  0
DICTIONARYVAR
  5
548
102
{ACAD_REACTORS
330
545
102
}
330
545
100
DictionaryVariables
280
     0
  1
1
  0
DICTIONARYVAR
  5
54D
102
{ACAD_REACTORS
330
545
102
}
330
545
100
DictionaryVariables
280
     0
  1
127
  0
DICTIONARYVAR
  5
5F5
102
{ACAD_REACTORS
330
545
102
}
330
545
100
DictionaryVariables
280
     0
  1
2
  0
DICTIONARY
  5
5C0
102
{ACAD_REACTORS
330
5B6
102
}
330
5B6
100
AcDbDictionary
281
     1
  0
DICTIONARY
  5
661
330
76
100
AcDbDictionary
280
     1
281
     1
  3
ACAD_XREC_ROUNDTRIP
360
662
  0
DICTIONARY
  5
665
330
7E
100
AcDbDictionary
280
     1
281
     1
  3
ACAD_XREC_ROUNDTRIP
360
666
  0
DICTIONARY
  5
663
330
7A
100
AcDbDictionary
280
     1
281
     1
  3
ACAD_XREC_ROUNDTRIP
360
664
  0
DICTIONARY
  5
1A
330
19
100
AcDbDictionary
280
     1
281
     1
  3
ACAD_XREC_ROUNDTRIP
360
638
  3
BUMPTILE
360
1C
  3
DIFFUSETILE
360
1B
  3
OPACITYTILE
360
1F
  3
REFLECTIONTILE
360
1E
  3
REFRACTIONTILE
360
20
  3
SPECULARTILE
360
1D
  0
DICTIONARY
  5
12
330
11
100
AcDbDictionary
280
     1
281
     1
  3
ACAD_XREC_ROUNDTRIP
360
637
  3
BUMPTILE
360
14
  3
DIFFUSETILE
360
13
  3
OPACITYTILE
360
17
  3
REFLECTIONTILE
360
16
  3
REFRACTIONTILE
360
18
  3
SPECULARTILE
360
15
  0
DICTIONARY
  5
22
330
21
100
AcDbDictionary
280
     1
281
     1
  3
ACAD_XREC_ROUNDTRIP
360
639
  3
BUMPTILE
360
24
  3
DIFFUSETILE
360
23
  3
OPACITYTILE
360
27
  3
REFLECTIONTILE
360
26
  3
REFRACTIONTILE
360
28
  3
SPECULARTILE
360
25
  0
DICTIONARY
  5
457
330
70
100
AcDbDictionary
280
     1
281
     1
  3
ACAD_ROUNDTRIP_2008_TABLESTYLE_CELLSTYLEMAP
360
5F6
  3
ACAD_XREC_ROUNDTRIP
360
660
  0
DICTIONARY
  5
644
330
2F
100
AcDbDictionary
280
     1
281
     1
  3
ACAD_XREC_ROUNDTRIP
360
645
  0
DICTIONARY
  5
648
330
31
100
AcDbDictionary
280
     1
281
     1
  3
ACAD_XREC_ROUNDTRIP
360
649
  0
DICTIONARY
  5
646
330
30
100
AcDbDictionary
280
     1
281
     1
  3
ACAD_XREC_ROUNDTRIP
360
647
  0
DICTIONARY
  5
642
330
2E
100
AcDbDictionary
280
     1
281
     1
  3
ACAD_XREC_ROUNDTRIP
360
643
  0
DICTIONARY
  5
650
330
35
100
AcDbDictionary
280
     1
281
     1
  3
ACAD_XREC_ROUNDTRIP
360
651
  0
DICTIONARY
  5
658
330
39
100
AcDbDictionary
280
     1
281
     1
  3
ACAD_XREC_ROUNDTRIP
360
659
  0
DICTIONARY
  5
64A
330
32
100
AcDbDictionary
280
     1
281
     1
  3
ACAD_XREC_ROUNDTRIP
360
64B
  0
DICTIONARY
  5
64E
330
34
100
AcDbDictionary
280
     1
281
     1
  3
ACAD_XREC_ROUNDTRIP
360
64F
  0
DICTIONARY
  5
65E
330
3C
100
AcDbDictionary
280
     1
281
     1
  3
ACAD_XREC_ROUNDTRIP
360
65F
  0
DICTIONARY
  5
656
330
38
100
AcDbDictionary
280
     1
281
     1
  3
ACAD_XREC_ROUNDTRIP
360
657
  0
DICTIONARY
  5
63A
330
2A
100
AcDbDictionary
280
     1
281
     1
  3
ACAD_XREC_ROUNDTRIP
360
63B
  0
DICTIONARY
  5
63C
330
2B
100
AcDbDictionary
280
     1
281
     1
  3
ACAD_XREC_ROUNDTRIP
360
63D
  0
DICTIONARY
  5
63E
330
2C
100
AcDbDictionary
280
     1
281
     1
  3
ACAD_XREC_ROUNDTRIP
360
63F
  0
DICTIONARY
  5
640
330
2D
100
AcDbDictionary
280
     1
281
     1
  3
ACAD_XREC_ROUNDTRIP
360
641
  0
DICTIONARY
  5
65A
330
3A
100
AcDbDictionary
280
     1
281
     1
  3
ACAD_XREC_ROUNDTRIP
360
65B
  0
DICTIONARY
  5
654
330
37
100
AcDbDictionary
280
     1
281
     1
  3
ACAD_XREC_ROUNDTRIP
360
655
  0
DICTIONARY
  5
65C
330
3B
100
AcDbDictionary
280
     1
281
     1
  3
ACAD_XREC_ROUNDTRIP
360
65D
  0
DICTIONARY
  5
64C
330
33
100
AcDbDictionary
280
     1
281
     1
  3
ACAD_XREC_ROUNDTRIP
360
64D
  0
DICTIONARY
  5
652
330
36
100
AcDbDictionary
280
     1
281
     1
  3
ACAD_XREC_ROUNDTRIP
360
653
  0
XRECORD
  5
662
102
{ACAD_REACTORS
330
661
102
}
330
661
100
AcDbXrecord
280
     1
102
SHADEPLOT
 70
     0
102
SHADEPLOTRESLEVEL
 70
     2
102
SHADEPLOTCUSTOMDPI
 70
   300
  0
XRECORD
  5
666
102
{ACAD_REACTORS
330
665
102
}
330
665
100
AcDbXrecord
280
     1
102
SHADEPLOT
 70
     0
102
SHADEPLOTRESLEVEL
 70
     2
102
SHADEPLOTCUSTOMDPI
 70
   300
  0
XRECORD
  5
664
102
{ACAD_REACTORS
330
663
102
}
330
663
100
AcDbXrecord
280
     1
102
SHADEPLOT
 70
     0
102
SHADEPLOTRESLEVEL
 70
     2
102
SHADEPLOTCUSTOMDPI
 70
   300
  0
XRECORD
  5
638
102
{ACAD_REACTORS
330
1A
102
}
330
1A
100
AcDbXrecord
280
     1
102
MATERIAL
148
0.0
149
0.0
149
0.0
 93
        0
 94
      127
282
     0
 72
     0
 77
     0
171
     0
175
     0
179
     0
273
     0
  0
XRECORD
  5
1C
102
{ACAD_REACTORS
330
1A
102
}
330
1A
100
AcDbXrecord
280
     1
270
     1
271
     1
  0
XRECORD
  5
1B
102
{ACAD_REACTORS
330
1A
102
}
330
1A
100
AcDbXrecord
280
     1
270
     1
271
     1
  0
XRECORD
  5
1F
102
{ACAD_REACTORS
330
1A
102
}
330
1A
100
AcDbXrecord
280
     1
270
     1
271
     1
  0
XRECORD
  5
1E
102
{ACAD_REACTORS
330
1A
102
}
330
1A
100
AcDbXrecord
280
     1
270
     1
271
     1
  0
XRECORD
  5
20
102
{ACAD_REACTORS
330
1A
102
}
330
1A
100
AcDbXrecord
280
     1
270
     1
271
     1
  0
XRECORD
  5
1D
102
{ACAD_REACTORS
330
1A
102
}
330
1A
100
AcDbXrecord
280
     1
270
     1
271
     1
  0
XRECORD
  5
637
102
{ACAD_REACTORS
330
12
102
}
330
12
100
AcDbXrecord
280
     1
102
MATERIAL
148
0.0
149
0.0
149
0.0
 93
        0
 94
      127
282
     0
 72
     0
 77
     0
171
     0
175
     0
179
     0
273
     0
  0
XRECORD
  5
14
102
{ACAD_REACTORS
330
12
102
}
330
12
100
AcDbXrecord
280
     1
270
     1
271
     1
  0
XRECORD
  5
13
102
{ACAD_REACTORS
330
12
102
}
330
12
100
AcDbXrecord
280
     1
270
     1
271
     1
  0
XRECORD
  5
17
102
{ACAD_REACTORS
330
12
102
}
330
12
100
AcDbXrecord
280
     1
270
     1
271
     1
  0
XRECORD
  5
16
102
{ACAD_REACTORS
330
12
102
}
330
12
100
AcDbXrecord
280
     1
270
     1
271
     1
  0
XRECORD
  5
18
102
{ACAD_REACTORS
330
12
102
}
330
12
100
AcDbXrecord
280
     1
270
     1
271
     1
  0
XRECORD
  5
15
102
{ACAD_REACTORS
330
12
102
}
330
12
100
AcDbXrecord
280
     1
270
     1
271
     1
  0
XRECORD
  5
639
102
{ACAD_REACTORS
330
22
102
}
330
22
100
AcDbXrecord
280
     1
102
MATERIAL
148
0.0
149
0.0
149
0.0
 93
        0
 94
      127
282
     0
 72
     0
 77
     0
171
     0
175
     0
179
     0
273
     0
  0
XRECORD
  5
24
102
{ACAD_REACTORS
330
22
102
}
330
22
100
AcDbXrecord
280
     1
270
     1
271
     1
  0
XRECORD
  5
23
102
{ACAD_REACTORS
330
22
102
}
330
22
100
AcDbXrecord
280
     1
270
     1
271
     1
  0
XRECORD
  5
27
102
{ACAD_REACTORS
330
22
102
}
330
22
100
AcDbXrecord
280
     1
270
     1
271
     1
  0
XRECORD
  5
26
102
{ACAD_REACTORS
330
22
102
}
330
22
100
AcDbXrecord
280
     1
270
     1
271
     1
  0
XRECORD
  5
28
102
{ACAD_REACTORS
330
22
102
}
330
22
100
AcDbXrecord
280
     1
270
     1
271
     1
  0
XRECORD
  5
25
102
{ACAD_REACTORS
330
22
102
}
330
22
100
AcDbXrecord
280
     1
270
     1
271
     1
  0
CELLSTYLEMAP
  5
5F6
102
{ACAD_REACTORS
330
457
102
}
330
457
100
AcDbCellStyleMap
 90
        3
300
CELLSTYLE
  1
TABLEFORMAT_BEGIN
 90
        5
170
     1
 91
        0
 92
    32768
 62
   257
 93
        1
300
CONTENTFORMAT
  1
CONTENTFORMAT_BEGIN
 90
        0
 91
        0
 92
      512
 93
        0
300

 40
0.0
140
1.0
 94
        5
 62
     0
340
60
144
0.25
309
CONTENTFORMAT_END
171
     0
 94
        0
309
TABLEFORMAT_END
  1
CELLSTYLE_BEGIN
 90
        1
 91
        1
300
_TITLE
309
CELLSTYLE_END
300
CELLSTYLE
  1
TABLEFORMAT_BEGIN
 90
        5
170
     1
 91
        0
 92
        0
 62
   257
 93
        1
300
CONTENTFORMAT
  1
CONTENTFORMAT_BEGIN
 90
        0
 91
        0
 92
      512
 93
        0
300

 40
0.0
140
1.0
 94
        5
 62
     0
340
60
144
0.18
309
CONTENTFORMAT_END
171
     0
 94
        0
309
TABLEFORMAT_END
  1
CELLSTYLE_BEGIN
 90
        2
 91
        1
300
_HEADER
309
CELLSTYLE_END
300
CELLSTYLE
  1
TABLEFORMAT_BEGIN
 90
        5
170
     1
 91
        0
 92
        0
 62
   257
 93
        1
300
CONTENTFORMAT
  1
CONTENTFORMAT_BEGIN
 90
        0
 91
        0
 92
      512
 93
        0
300

 40
0.0
140
1.0
 94
        2
 62
     0
340
60
144
0.18
309
CONTENTFORMAT_END
171
     0
 94
        0
309
TABLEFORMAT_END
  1
CELLSTYLE_BEGIN
 90
        3
 91
        2
300
_DATA
309
CELLSTYLE_END
  0
XRECORD
  5
660
102
{ACAD_REACTORS
330
457
102
}
330
457
100
AcDbXrecord
280
     1
102
ACAD_ROUNDTRIP_PRE2007_TABLESTYLE
 90
      512
 91
        0
  1

 92
      512
 93
        0
  2

 94
      512
 95
        0
  3

  0
XRECORD
  5
645
102
{ACAD_REACTORS
330
644
102
}
330
644
100
AcDbXrecord
280
     1
102
RTVSPropertyOp0
 70
     1
102
RTVSPropertyOp1
 70
     1
102
RTVSPropertyOp2
 70
     1
102
RTVSPropertyOp3
 70
     1
102
RTVSPropertyOp4
 70
     1
102
RTVSPropertyOp5
 70
     1
102
RTVSPropertyOp6
 70
     1
102
RTVSPropertyOp7
 70
     1
102
RTVSPropertyOp8
 70
     1
102
RTVSPropertyOp9
 70
     1
102
RTVSPropertyOp10
 70
     1
102
RTVSPropertyOp11
 70
     1
102
RTVSPropertyOp12
 70
     1
102
RTVSPropertyOp13
 70
     1
102
RTVSPropertyOp14
 70
     1
102
RTVSPropertyOp15
 70
     1
102
RTVSPropertyOp16
 70
     1
102
RTVSPropertyOp17
 70
     1
102
RTVSPropertyOp18
 70
     1
102
RTVSPropertyOp19
 70
     1
102
RTVSPropertyOp20
 70
     1
102
RTVSPropertyOp21
 70
     1
102
RTVSPropertyOp22
 70
     1
102
RTVSPropertyOp23
 70
     1
102
RTVSPropertyOp24
 70
     1
102
RTVSPropertyOp25
 70
     1
102
RTVSPropertyOp26
 70
     1
102
RTVSPropertyOp27
 70
     1
  0
XRECORD
  5
649
102
{ACAD_REACTORS
330
648
102
}
330
648
100
AcDbXrecord
280
     1
102
RTVSPropertyOp0
 70
     1
102
RTVSPropertyOp1
 70
     1
102
RTVSPropertyOp2
 70
     1
102
RTVSPropertyOp3
 70
     1
102
RTVSPropertyOp4
 70
     1
102
RTVSPropertyOp5
 70
     1
102
RTVSPropertyOp6
 70
     1
102
RTVSPropertyOp7
 70
     1
102
RTVSPropertyOp8
 70
     1
102
RTVSPropertyOp9
 70
     1
102
RTVSPropertyOp10
 70
     1
102
RTVSPropertyOp11
 70
     1
102
RTVSPropertyOp12
 70
     1
102
RTVSPropertyOp13
 70
     1
102
RTVSPropertyOp14
 70
     1
102
RTVSPropertyOp15
 70
     1
102
RTVSPropertyOp16
 70
     1
102
RTVSPropertyOp17
 70
     1
102
RTVSPropertyOp18
 70
     1
102
RTVSPropertyOp19
 70
     1
102
RTVSPropertyOp20
 70
     1
102
RTVSPropertyOp21
 70
     1
102
RTVSPropertyOp22
 70
     1
102
RTVSPropertyOp23
 70
     1
102
RTVSPropertyOp24
 70
     1
102
RTVSPropertyOp25
 70
     1
102
RTVSPropertyOp26
 70
     1
102
RTVSPropertyOp27
 70
     1
  0
XRECORD
  5
647
102
{ACAD_REACTORS
330
646
102
}
330
646
100
AcDbXrecord
280
     1
102
RTVSPropertyOp0
 70
     1
102
RTVSPropertyOp1
 70
     1
102
RTVSPropertyOp2
 70
     1
102
RTVSPropertyOp3
 70
     1
102
RTVSPropertyOp4
 70
     1
102
RTVSPropertyOp5
 70
     1
102
RTVSPropertyOp6
 70
     1
102
RTVSPropertyOp7
 70
     1
102
RTVSPropertyOp8
 70
     1
102
RTVSPropertyOp9
 70
     1
102
RTVSPropertyOp10
 70
     1
102
RTVSPropertyOp11
 70
     1
102
RTVSPropertyOp12
 70
     1
102
RTVSPropertyOp13
 70
     1
102
RTVSPropertyOp14
 70
     1
102
RTVSPropertyOp15
 70
     1
102
RTVSPropertyOp16
 70
     1
102
RTVSPropertyOp17
 70
     1
102
RTVSPropertyOp18
 70
     1
102
RTVSPropertyOp19
 70
     1
102
RTVSPropertyOp20
 70
     1
102
RTVSPropertyOp21
 70
     1
102
RTVSPropertyOp22
 70
     1
102
RTVSPropertyOp23
 70
     1
102
RTVSPropertyOp24
 70
     1
102
RTVSPropertyOp25
 70
     1
102
RTVSPropertyOp26
 70
     1
102
RTVSPropertyOp27
 70
     1
  0
XRECORD
  5
643
102
{ACAD_REACTORS
330
642
102
}
330
642
100
AcDbXrecord
280
     1
102
RTVSPropertyOp0
 70
     1
102
RTVSPropertyOp1
 70
     1
102
RTVSPropertyOp2
 70
     1
102
RTVSPropertyOp3
 70
     1
102
RTVSPropertyOp4
 70
     1
102
RTVSPropertyOp5
 70
     1
102
RTVSPropertyOp6
 70
     1
102
RTVSPropertyOp7
 70
     1
102
RTVSPropertyOp8
 70
     1
102
RTVSPropertyOp9
 70
     1
102
RTVSPropertyOp10
 70
     1
102
RTVSPropertyOp11
 70
     1
102
RTVSPropertyOp12
 70
     1
102
RTVSPropertyOp13
 70
     1
102
RTVSPropertyOp14
 70
     1
102
RTVSPropertyOp15
 70
     1
102
RTVSPropertyOp16
 70
     1
102
RTVSPropertyOp17
 70
     1
102
RTVSPropertyOp18
 70
     1
102
RTVSPropertyOp19
 70
     1
102
RTVSPropertyOp20
 70
     1
102
RTVSPropertyOp21
 70
     1
102
RTVSPropertyOp22
 70
     1
102
RTVSPropertyOp23
 70
     1
102
RTVSPropertyOp24
 70
     1
102
RTVSPropertyOp25
 70
     1
102
RTVSPropertyOp26
 70
     1
102
RTVSPropertyOp27
 70
     1
  0
XRECORD
  5
651
102
{ACAD_REACTORS
330
650
102
}
330
650
100
AcDbXrecord
280
     1
102
RTVSPropertyOp0
 70
     1
102
RTVSPropertyOp1
 70
     1
102
RTVSPropertyOp2
 70
     1
102
RTVSPropertyOp3
 70
     1
102
RTVSPropertyOp4
 70
     1
102
RTVSPropertyOp5
 70
     1
102
RTVSPropertyOp6
 70
     1
102
RTVSPropertyOp7
 70
     1
102
RTVSPropertyOp8
 70
     1
102
RTVSPropertyOp9
 70
     1
102
RTVSPropertyOp10
 70
     1
102
RTVSPropertyOp11
 70
     1
102
RTVSPropertyOp12
 70
     1
102
RTVSPropertyOp13
 70
     1
102
RTVSPropertyOp14
 70
     1
102
RTVSPropertyOp15
 70
     1
102
RTVSPropertyOp16
 70
     1
102
RTVSPropertyOp17
 70
     1
102
RTVSPropertyOp18
 70
     1
102
RTVSPropertyOp19
 70
     1
102
RTVSPropertyOp20
 70
     1
102
RTVSPropertyOp21
 70
     1
102
RTVSPropertyOp22
 70
     1
102
RTVSPropertyOp23
 70
     1
102
RTVSPropertyOp24
 70
     1
102
RTVSPropertyOp25
 70
     1
102
RTVSPropertyOp26
 70
     1
102
RTVSPropertyOp27
 70
     1
  0
XRECORD
  5
659
102
{ACAD_REACTORS
330
658
102
}
330
658
100
AcDbXrecord
280
     1
102
RTVSPropertyOp0
 70
     1
102
RTVSPropertyOp1
 70
     1
102
RTVSPropertyOp2
 70
     1
102
RTVSPropertyOp3
 70
     1
102
RTVSPropertyOp4
 70
     1
102
RTVSPropertyOp5
 70
     1
102
RTVSPropertyOp6
 70
     1
102
RTVSPropertyOp7
 70
     1
102
RTVSPropertyOp8
 70
     1
102
RTVSPropertyOp9
 70
     1
102
RTVSPropertyOp10
 70
     1
102
RTVSPropertyOp11
 70
     1
102
RTVSPropertyOp12
 70
     1
102
RTVSPropertyOp13
 70
     1
102
RTVSPropertyOp14
 70
     1
102
RTVSPropertyOp15
 70
     1
102
RTVSPropertyOp16
 70
     1
102
RTVSPropertyOp17
 70
     1
102
RTVSPropertyOp18
 70
     1
102
RTVSPropertyOp19
 70
     1
102
RTVSPropertyOp20
 70
     1
102
RTVSPropertyOp21
 70
     1
102
RTVSPropertyOp22
 70
     1
102
RTVSPropertyOp23
 70
     1
102
RTVSPropertyOp24
 70
     1
102
RTVSPropertyOp25
 70
     1
102
RTVSPropertyOp26
 70
     1
102
RTVSPropertyOp27
 70
     1
  0
XRECORD
  5
64B
102
{ACAD_REACTORS
330
64A
102
}
330
64A
100
AcDbXrecord
280
     1
102
RTVSPropertyOp0
 70
     1
102
RTVSPropertyOp1
 70
     1
102
RTVSPropertyOp2
 70
     1
102
RTVSPropertyOp3
 70
     1
102
RTVSPropertyOp4
 70
     1
102
RTVSPropertyOp5
 70
     1
102
RTVSPropertyOp6
 70
     1
102
RTVSPropertyOp7
 70
     1
102
RTVSPropertyOp8
 70
     1
102
RTVSPropertyOp9
 70
     1
102
RTVSPropertyOp10
 70
     1
102
RTVSPropertyOp11
 70
     1
102
RTVSPropertyOp12
 70
     1
102
RTVSPropertyOp13
 70
     1
102
RTVSPropertyOp14
 70
     1
102
RTVSPropertyOp15
 70
     1
102
RTVSPropertyOp16
 70
     1
102
RTVSPropertyOp17
 70
     1
102
RTVSPropertyOp18
 70
     1
102
RTVSPropertyOp19
 70
     1
102
RTVSPropertyOp20
 70
     1
102
RTVSPropertyOp21
 70
     1
102
RTVSPropertyOp22
 70
     1
102
RTVSPropertyOp23
 70
     1
102
RTVSPropertyOp24
 70
     1
102
RTVSPropertyOp25
 70
     1
102
RTVSPropertyOp26
 70
     1
102
RTVSPropertyOp27
 70
     1
  0
XRECORD
  5
64F
102
{ACAD_REACTORS
330
64E
102
}
330
64E
100
AcDbXrecord
280
     1
102
RTVSPropertyOp0
 70
     1
102
RTVSPropertyOp1
 70
     1
102
RTVSPropertyOp2
 70
     1
102
RTVSPropertyOp3
 70
     1
102
RTVSPropertyOp4
 70
     1
102
RTVSPropertyOp5
 70
     1
102
RTVSPropertyOp6
 70
     1
102
RTVSPropertyOp7
 70
     1
102
RTVSPropertyOp8
 70
     1
102
RTVSPropertyOp9
 70
     1
102
RTVSPropertyOp10
 70
     1
102
RTVSPropertyOp11
 70
     1
102
RTVSPropertyOp12
 70
     1
102
RTVSPropertyOp13
 70
     1
102
RTVSPropertyOp14
 70
     1
102
RTVSPropertyOp15
 70
     1
102
RTVSPropertyOp16
 70
     1
102
RTVSPropertyOp17
 70
     1
102
RTVSPropertyOp18
 70
     1
102
RTVSPropertyOp19
 70
     1
102
RTVSPropertyOp20
 70
     1
102
RTVSPropertyOp21
 70
     1
102
RTVSPropertyOp22
 70
     1
102
RTVSPropertyOp23
 70
     1
102
RTVSPropertyOp24
 70
     1
102
RTVSPropertyOp25
 70
     1
102
RTVSPropertyOp26
 70
     1
102
RTVSPropertyOp27
 70
     1
  0
XRECORD
  5
65F
102
{ACAD_REACTORS
330
65E
102
}
330
65E
100
AcDbXrecord
280
     1
102
RTVSPropertyOp0
 70
     0
102
RTVSPropertyOp1
 70
     0
102
RTVSPropertyOp2
 70
     0
102
RTVSPropertyOp3
 70
     0
102
RTVSPropertyOp4
 70
     0
102
RTVSPropertyOp5
 70
     0
102
RTVSPropertyOp6
 70
     0
102
RTVSPropertyOp7
 70
     0
102
RTVSPropertyOp8
 70
     0
102
RTVSPropertyOp9
 70
     0
102
RTVSPropertyOp10
 70
     0
102
RTVSPropertyOp11
 70
     0
102
RTVSPropertyOp12
 70
     0
102
RTVSPropertyOp13
 70
     0
102
RTVSPropertyOp14
 70
     2
102
RTVSPropertyOp15
 70
     0
102
RTVSPropertyOp16
 70
     0
102
RTVSPropertyOp17
 70
     0
102
RTVSPropertyOp18
 70
     0
102
RTVSPropertyOp19
 70
     0
102
RTVSPropertyOp20
 70
     0
102
RTVSPropertyOp21
 70
     0
102
RTVSPropertyOp22
 70
     0
102
RTVSPropertyOp23
 70
     0
102
RTVSPropertyOp24
 70
     0
102
RTVSPropertyOp25
 70
     0
102
RTVSPropertyOp26
 70
     0
102
RTVSPropertyOp27
 70
     0
  0
XRECORD
  5
657
102
{ACAD_REACTORS
330
656
102
}
330
656
100
AcDbXrecord
280
     1
102
RTVSPropertyOp0
 70
     1
102
RTVSPropertyOp1
 70
     1
102
RTVSPropertyOp2
 70
     1
102
RTVSPropertyOp3
 70
     1
102
RTVSPropertyOp4
 70
     1
102
RTVSPropertyOp5
 70
     1
102
RTVSPropertyOp6
 70
     1
102
RTVSPropertyOp7
 70
     1
102
RTVSPropertyOp8
 70
     1
102
RTVSPropertyOp9
 70
     1
102
RTVSPropertyOp10
 70
     1
102
RTVSPropertyOp11
 70
     1
102
RTVSPropertyOp12
 70
     1
102
RTVSPropertyOp13
 70
     1
102
RTVSPropertyOp14
 70
     1
102
RTVSPropertyOp15
 70
     1
102
RTVSPropertyOp16
 70
     1
102
RTVSPropertyOp17
 70
     1
102
RTVSPropertyOp18
 70
     1
102
RTVSPropertyOp19
 70
     1
102
RTVSPropertyOp20
 70
     1
102
RTVSPropertyOp21
 70
     1
102
RTVSPropertyOp22
 70
     1
102
RTVSPropertyOp23
 70
     1
102
RTVSPropertyOp24
 70
     1
102
RTVSPropertyOp25
 70
     1
102
RTVSPropertyOp26
 70
     1
102
RTVSPropertyOp27
 70
     1
  0
XRECORD
  5
63B
102
{ACAD_REACTORS
330
63A
102
}
330
63A
100
AcDbXrecord
280
     1
102
RTVSPropertyOp0
 70
     1
102
RTVSPropertyOp1
 70
     1
102
RTVSPropertyOp2
 70
     1
102
RTVSPropertyOp3
 70
     1
102
RTVSPropertyOp4
 70
     1
102
RTVSPropertyOp5
 70
     1
102
RTVSPropertyOp6
 70
     1
102
RTVSPropertyOp7
 70
     1
102
RTVSPropertyOp8
 70
     1
102
RTVSPropertyOp9
 70
     1
102
RTVSPropertyOp10
 70
     1
102
RTVSPropertyOp11
 70
     1
102
RTVSPropertyOp12
 70
     1
102
RTVSPropertyOp13
 70
     1
102
RTVSPropertyOp14
 70
     1
102
RTVSPropertyOp15
 70
     1
102
RTVSPropertyOp16
 70
     1
102
RTVSPropertyOp17
 70
     1
102
RTVSPropertyOp18
 70
     1
102
RTVSPropertyOp19
 70
     1
102
RTVSPropertyOp20
 70
     1
102
RTVSPropertyOp21
 70
     1
102
RTVSPropertyOp22
 70
     1
102
RTVSPropertyOp23
 70
     1
102
RTVSPropertyOp24
 70
     1
102
RTVSPropertyOp25
 70
     1
102
RTVSPropertyOp26
 70
     1
102
RTVSPropertyOp27
 70
     1
  0
XRECORD
  5
63D
102
{ACAD_REACTORS
330
63C
102
}
330
63C
100
AcDbXrecord
280
     1
102
RTVSPropertyOp0
 70
     1
102
RTVSPropertyOp1
 70
     1
102
RTVSPropertyOp2
 70
     1
102
RTVSPropertyOp3
 70
     1
102
RTVSPropertyOp4
 70
     1
102
RTVSPropertyOp5
 70
     1
102
RTVSPropertyOp6
 70
     1
102
RTVSPropertyOp7
 70
     1
102
RTVSPropertyOp8
 70
     1
102
RTVSPropertyOp9
 70
     1
102
RTVSPropertyOp10
 70
     1
102
RTVSPropertyOp11
 70
     1
102
RTVSPropertyOp12
 70
     1
102
RTVSPropertyOp13
 70
     1
102
RTVSPropertyOp14
 70
     1
102
RTVSPropertyOp15
 70
     1
102
RTVSPropertyOp16
 70
     1
102
RTVSPropertyOp17
 70
     1
102
RTVSPropertyOp18
 70
     1
102
RTVSPropertyOp19
 70
     1
102
RTVSPropertyOp20
 70
     1
102
RTVSPropertyOp21
 70
     1
102
RTVSPropertyOp22
 70
     1
102
RTVSPropertyOp23
 70
     1
102
RTVSPropertyOp24
 70
     1
102
RTVSPropertyOp25
 70
     1
102
RTVSPropertyOp26
 70
     1
102
RTVSPropertyOp27
 70
     1
  0
XRECORD
  5
63F
102
{ACAD_REACTORS
330
63E
102
}
330
63E
100
AcDbXrecord
280
     1
102
RTVSPropertyOp0
 70
     1
102
RTVSPropertyOp1
 70
     1
102
RTVSPropertyOp2
 70
     1
102
RTVSPropertyOp3
 70
     1
102
RTVSPropertyOp4
 70
     1
102
RTVSPropertyOp5
 70
     1
102
RTVSPropertyOp6
 70
     1
102
RTVSPropertyOp7
 70
     1
102
RTVSPropertyOp8
 70
     1
102
RTVSPropertyOp9
 70
     1
102
RTVSPropertyOp10
 70
     1
102
RTVSPropertyOp11
 70
     1
102
RTVSPropertyOp12
 70
     1
102
RTVSPropertyOp13
 70
     1
102
RTVSPropertyOp14
 70
     1
102
RTVSPropertyOp15
 70
     1
102
RTVSPropertyOp16
 70
     1
102
RTVSPropertyOp17
 70
     1
102
RTVSPropertyOp18
 70
     1
102
RTVSPropertyOp19
 70
     1
102
RTVSPropertyOp20
 70
     1
102
RTVSPropertyOp21
 70
     1
102
RTVSPropertyOp22
 70
     1
102
RTVSPropertyOp23
 70
     1
102
RTVSPropertyOp24
 70
     1
102
RTVSPropertyOp25
 70
     1
102
RTVSPropertyOp26
 70
     1
102
RTVSPropertyOp27
 70
     1
  0
XRECORD
  5
641
102
{ACAD_REACTORS
330
640
102
}
330
640
100
AcDbXrecord
280
     1
102
RTVSPropertyOp0
 70
     1
102
RTVSPropertyOp1
 70
     1
102
RTVSPropertyOp2
 70
     1
102
RTVSPropertyOp3
 70
     1
102
RTVSPropertyOp4
 70
     1
102
RTVSPropertyOp5
 70
     1
102
RTVSPropertyOp6
 70
     1
102
RTVSPropertyOp7
 70
     1
102
RTVSPropertyOp8
 70
     1
102
RTVSPropertyOp9
 70
     1
102
RTVSPropertyOp10
 70
     1
102
RTVSPropertyOp11
 70
     1
102
RTVSPropertyOp12
 70
     1
102
RTVSPropertyOp13
 70
     1
102
RTVSPropertyOp14
 70
     1
102
RTVSPropertyOp15
 70
     1
102
RTVSPropertyOp16
 70
     1
102
RTVSPropertyOp17
 70
     1
102
RTVSPropertyOp18
 70
     1
102
RTVSPropertyOp19
 70
     1
102
RTVSPropertyOp20
 70
     1
102
RTVSPropertyOp21
 70
     1
102
RTVSPropertyOp22
 70
     1
102
RTVSPropertyOp23
 70
     1
102
RTVSPropertyOp24
 70
     1
102
RTVSPropertyOp25
 70
     1
102
RTVSPropertyOp26
 70
     1
102
RTVSPropertyOp27
 70
     1
  0
XRECORD
  5
65B
102
{ACAD_REACTORS
330
65A
102
}
330
65A
100
AcDbXrecord
280
     1
102
RTVSPropertyOp0
 70
     0
102
RTVSPropertyOp1
 70
     0
102
RTVSPropertyOp2
 70
     0
102
RTVSPropertyOp3
 70
     0
102
RTVSPropertyOp4
 70
     0
102
RTVSPropertyOp5
 70
     0
102
RTVSPropertyOp6
 70
     0
102
RTVSPropertyOp7
 70
     0
102
RTVSPropertyOp8
 70
     0
102
RTVSPropertyOp9
 70
     0
102
RTVSPropertyOp10
 70
     0
102
RTVSPropertyOp11
 70
     0
102
RTVSPropertyOp12
 70
     0
102
RTVSPropertyOp13
 70
     0
102
RTVSPropertyOp14
 70
     2
102
RTVSPropertyOp15
 70
     0
102
RTVSPropertyOp16
 70
     0
102
RTVSPropertyOp17
 70
     0
102
RTVSPropertyOp18
 70
     0
102
RTVSPropertyOp19
 70
     0
102
RTVSPropertyOp20
 70
     0
102
RTVSPropertyOp21
 70
     0
102
RTVSPropertyOp22
 70
     0
102
RTVSPropertyOp23
 70
     0
102
RTVSPropertyOp24
 70
     0
102
RTVSPropertyOp25
 70
     0
102
RTVSPropertyOp26
 70
     0
102
RTVSPropertyOp27
 70
     0
  0
XRECORD
  5
655
102
{ACAD_REACTORS
330
654
102
}
330
654
100
AcDbXrecord
280
     1
102
RTVSPropertyOp0
 70
     1
102
RTVSPropertyOp1
 70
     1
102
RTVSPropertyOp2
 70
     1
102
RTVSPropertyOp3
 70
     1
102
RTVSPropertyOp4
 70
     1
102
RTVSPropertyOp5
 70
     1
102
RTVSPropertyOp6
 70
     1
102
RTVSPropertyOp7
 70
     1
102
RTVSPropertyOp8
 70
     1
102
RTVSPropertyOp9
 70
     1
102
RTVSPropertyOp10
 70
     1
102
RTVSPropertyOp11
 70
     1
102
RTVSPropertyOp12
 70
     1
102
RTVSPropertyOp13
 70
     1
102
RTVSPropertyOp14
 70
     1
102
RTVSPropertyOp15
 70
     1
102
RTVSPropertyOp16
 70
     1
102
RTVSPropertyOp17
 70
     1
102
RTVSPropertyOp18
 70
     1
102
RTVSPropertyOp19
 70
     1
102
RTVSPropertyOp20
 70
     1
102
RTVSPropertyOp21
 70
     1
102
RTVSPropertyOp22
 70
     1
102
RTVSPropertyOp23
 70
     1
102
RTVSPropertyOp24
 70
     1
102
RTVSPropertyOp25
 70
     1
102
RTVSPropertyOp26
 70
     1
102
RTVSPropertyOp27
 70
     1
  0
XRECORD
  5
65D
102
{ACAD_REACTORS
330
65C
102
}
330
65C
100
AcDbXrecord
280
     1
102
RTVSPropertyOp0
 70
     0
102
RTVSPropertyOp1
 70
     0
102
RTVSPropertyOp2
 70
     0
102
RTVSPropertyOp3
 70
     0
102
RTVSPropertyOp4
 70
     0
102
RTVSPropertyOp5
 70
     0
102
RTVSPropertyOp6
 70
     0
102
RTVSPropertyOp7
 70
     0
102
RTVSPropertyOp8
 70
     0
102
RTVSPropertyOp9
 70
     0
102
RTVSPropertyOp10
 70
     0
102
RTVSPropertyOp11
 70
     0
102
RTVSPropertyOp12
 70
     0
102
RTVSPropertyOp13
 70
     0
102
RTVSPropertyOp14
 70
     2
102
RTVSPropertyOp15
 70
     0
102
RTVSPropertyOp16
 70
     0
102
RTVSPropertyOp17
 70
     0
102
RTVSPropertyOp18
 70
     0
102
RTVSPropertyOp19
 70
     0
102
RTVSPropertyOp20
 70
     0
102
RTVSPropertyOp21
 70
     0
102
RTVSPropertyOp22
 70
     0
102
RTVSPropertyOp23
 70
     0
102
RTVSPropertyOp24
 70
     0
102
RTVSPropertyOp25
 70
     0
102
RTVSPropertyOp26
 70
     0
102
RTVSPropertyOp27
 70
     0
  0
XRECORD
  5
64D
102
{ACAD_REACTORS
330
64C
102
}
330
64C
100
AcDbXrecord
280
     1
102
RTVSPropertyOp0
 70
     1
102
RTVSPropertyOp1
 70
     1
102
RTVSPropertyOp2
 70
     1
102
RTVSPropertyOp3
 70
     1
102
RTVSPropertyOp4
 70
     1
102
RTVSPropertyOp5
 70
     1
102
RTVSPropertyOp6
 70
     1
102
RTVSPropertyOp7
 70
     1
102
RTVSPropertyOp8
 70
     1
102
RTVSPropertyOp9
 70
     1
102
RTVSPropertyOp10
 70
     1
102
RTVSPropertyOp11
 70
     1
102
RTVSPropertyOp12
 70
     1
102
RTVSPropertyOp13
 70
     1
102
RTVSPropertyOp14
 70
     1
102
RTVSPropertyOp15
 70
     1
102
RTVSPropertyOp16
 70
     1
102
RTVSPropertyOp17
 70
     1
102
RTVSPropertyOp18
 70
     1
102
RTVSPropertyOp19
 70
     1
102
RTVSPropertyOp20
 70
     1
102
RTVSPropertyOp21
 70
     1
102
RTVSPropertyOp22
 70
     1
102
RTVSPropertyOp23
 70
     1
102
RTVSPropertyOp24
 70
     1
102
RTVSPropertyOp25
 70
     1
102
RTVSPropertyOp26
 70
     1
102
RTVSPropertyOp27
 70
     1
  0
XRECORD
  5
653
102
{ACAD_REACTORS
330
652
102
}
330
652
100
AcDbXrecord
280
     1
102
RTVSPropertyOp0
 70
     1
102
RTVSPropertyOp1
 70
     1
102
RTVSPropertyOp2
 70
     1
102
RTVSPropertyOp3
 70
     1
102
RTVSPropertyOp4
 70
     1
102
RTVSPropertyOp5
 70
     1
102
RTVSPropertyOp6
 70
     1
102
RTVSPropertyOp7
 70
     1
102
RTVSPropertyOp8
 70
     1
102
RTVSPropertyOp9
 70
     1
102
RTVSPropertyOp10
 70
     1
102
RTVSPropertyOp11
 70
     1
102
RTVSPropertyOp12
 70
     1
102
RTVSPropertyOp13
 70
     1
102
RTVSPropertyOp14
 70
     1
102
RTVSPropertyOp15
 70
     1
102
RTVSPropertyOp16
 70
     1
102
RTVSPropertyOp17
 70
     1
102
RTVSPropertyOp18
 70
     1
102
RTVSPropertyOp19
 70
     1
102
RTVSPropertyOp20
 70
     1
102
RTVSPropertyOp21
 70
     1
102
RTVSPropertyOp22
 70
     1
102
RTVSPropertyOp23
 70
     1
102
RTVSPropertyOp24
 70
     1
102
RTVSPropertyOp25
 70
     1
102
RTVSPropertyOp26
 70
     1
102
RTVSPropertyOp27
 70
     1
  0
ENDSEC
  0
EOF
