  0
SECTION
  2
HEADER
  9
$ACADVER
  1
AC1015
  9
$ACADMAINTVER
 70
    20
  9
$DWGCODEPAGE
  3
ANSI_1252
  9
$INSBASE
 10
0.0
 20
0.0
 30
0.0
  9
$EXTMIN
 10
-0.0000000000004263
 20
0.0
 30
0.0
  9
$EXTMAX
 10
700.4183940663909
 20
594.0000152587891
 30
0.0
  9
$LIMMIN
 10
0.0
 20
0.0
  9
$LIMMAX
 10
420.0
 20
594.0
  9
$ORTHOMODE
 70
     0
  9
$REGENMODE
 70
     1
  9
$FILLMODE
 70
     1
  9
$QTEXTMODE
 70
     0
  9
$MIRRTEXT
 70
     0
  9
$LTSCALE
 40
2.0
  9
$ATTMODE
 70
     1
  9
$TEXTSIZE
 40
0.2
  9
$TRACEWID
 40
0.05
  9
$TEXTSTYLE
  7
Standard
  9
$CLAYER
  8
0
  9
$CELTYPE
  6
ByLayer
  9
$CECOLOR
 62
   256
  9
$CELTSCALE
 40
1.0
  9
$DISPSILH
 70
     0
  9
$DIMSCALE
 40
1.0
  9
$DIMASZ
 40
1.799999999999999
  9
$DIMEXO
 40
0.0625
  9
$DIMDLI
 40
0.38
  9
$DIMRND
 40
0.0
  9
$DIMDLE
 40
0.0
  9
$DIMEXE
 40
0.18
  9
$DIMTP
 40
0.0
  9
$DIMTM
 40
0.0
  9
$DIMTXT
 40
0.3499999940395355
  9
$DIMCEN
 40
0.09
  9
$DIMTSZ
 40
0.0
  9
$DIMTOL
 70
     0
  9
$DIMLIM
 70
     0
  9
$DIMTIH
 70
     1
  9
$DIMTOH
 70
     1
  9
$DIMSE1
 70
     0
  9
$DIMSE2
 70
     0
  9
$DIMTAD
 70
     0
  9
$DIMZIN
 70
     0
  9
$DIMBLK
  1

  9
$DIMASO
 70
     1
  9
$DIMSHO
 70
     1
  9
$DIMPOST
  1

  9
$DIMAPOST
  1

  9
$DIMALT
 70
     0
  9
$DIMALTD
 70
     2
  9
$DIMALTF
 40
25.4
  9
$DIMLFAC
 40
1.0
  9
$DIMTOFL
 70
     0
  9
$DIMTVP
 40
0.0
  9
$DIMTIX
 70
     0
  9
$DIMSOXD
 70
     0
  9
$DIMSAH
 70
     0
  9
$DIMBLK1
  1

  9
$DIMBLK2
  1

  9
$DIMSTYLE
  2
Standard
  9
$DIMCLRD
 70
     0
  9
$DIMCLRE
 70
     0
  9
$DIMCLRT
 70
     0
  9
$DIMTFAC
 40
1.0
  9
$DIMGAP
 40
0.09
  9
$DIMJUST
 70
     0
  9
$DIMSD1
 70
     0
  9
$DIMSD2
 70
     0
  9
$DIMTOLJ
 70
     1
  9
$DIMTZIN
 70
     0
  9
$DIMALTZ
 70
     0
  9
$DIMALTTZ
 70
     0
  9
$DIMUPT
 70
     0
  9
$DIMDEC
 70
     4
  9
$DIMTDEC
 70
     4
  9
$DIMALTU
 70
     2
  9
$DIMALTTD
 70
     2
  9
$DIMTXSTY
  7
Standard
  9
$DIMAUNIT
 70
     0
  9
$DIMADEC
 70
     0
  9
$DIMALTRND
 40
0.0
  9
$DIMAZIN
 70
     0
  9
$DIMDSEP
 70
    46
  9
$DIMATFIT
 70
     3
  9
$DIMFRAC
 70
     0
  9
$DIMLDRBLK
  1

  9
$DIMLUNIT
 70
     2
  9
$DIMLWD
 70
    -2
  9
$DIMLWE
 70
    -2
  9
$DIMTMOVE
 70
     0
  9
$LUNITS
 70
     2
  9
$LUPREC
 70
     4
  9
$SKETCHINC
 40
0.1
  9
$FILLETRAD
 40
0.0
  9
$AUNITS
 70
     0
  9
$AUPREC
 70
     0
  9
$MENU
  1
.
  9
$ELEVATION
 40
0.0
  9
$PELEVATION
 40
0.0
  9
$THICKNESS
 40
0.0
  9
$LIMCHECK
 70
     0
  9
$CHAMFERA
 40
0.0
  9
$CHAMFERB
 40
0.0
  9
$CHAMFERC
 40
0.0
  9
$CHAMFERD
 40
0.0
  9
$SKPOLY
 70
     0
  9
$TDCREATE
 40
2455971.647392535
  9
$TDUCREATE
 40
2455971.605725868
  9
$TDUPDATE
 40
2455971.648105649
  9
$TDUUPDATE
 40
2455971.606438982
  9
$TDINDWG
 40
0.0006315509
  9
$TDUSRTIMER
 40
0.0006315509
  9
$USRTIMER
 70
     1
  9
$ANGBASE
 50
0.0
  9
$ANGDIR
 70
     0
  9
$PDMODE
 70
     0
  9
$PDSIZE
 40
0.0
  9
$PLINEWID
 40
0.0
  9
$SPLFRAME
 70
     0
  9
$SPLINETYPE
 70
     6
  9
$SPLINESEGS
 70
     8
  9
$HANDSEED
  5
9D5
  9
$SURFTAB1
 70
     6
  9
$SURFTAB2
 70
     6
  9
$SURFTYPE
 70
     6
  9
$SURFU
 70
     6
  9
$SURFV
 70
     6
  9
$UCSBASE
  2

  9
$UCSNAME
  2

  9
$UCSORG
 10
0.0
 20
0.0
 30
0.0
  9
$UCSXDIR
 10
1.0
 20
0.0
 30
0.0
  9
$UCSYDIR
 10
0.0
 20
1.0
 30
0.0
  9
$UCSORTHOREF
  2

  9
$UCSORTHOVIEW
 70
     0
  9
$UCSORGTOP
 10
0.0
 20
0.0
 30
0.0
  9
$UCSORGBOTTOM
 10
0.0
 20
0.0
 30
0.0
  9
$UCSORGLEFT
 10
0.0
 20
0.0
 30
0.0
  9
$UCSORGRIGHT
 10
0.0
 20
0.0
 30
0.0
  9
$UCSORGFRONT
 10
0.0
 20
0.0
 30
0.0
  9
$UCSORGBACK
 10
0.0
 20
0.0
 30
0.0
  9
$PUCSBASE
  2

  9
$PUCSNAME
  2

  9
$PUCSORG
 10
0.0
 20
0.0
 30
0.0
  9
$PUCSXDIR
 10
1.0
 20
0.0
 30
0.0
  9
$PUCSYDIR
 10
0.0
 20
1.0
 30
0.0
  9
$PUCSORTHOREF
  2

  9
$PUCSORTHOVIEW
 70
     0
  9
$PUCSORGTOP
 10
0.0
 20
0.0
 30
0.0
  9
$PUCSORGBOTTOM
 10
0.0
 20
0.0
 30
0.0
  9
$PUCSORGLEFT
 10
0.0
 20
0.0
 30
0.0
  9
$PUCSORGRIGHT
 10
0.0
 20
0.0
 30
0.0
  9
$PUCSORGFRONT
 10
0.0
 20
0.0
 30
0.0
  9
$PUCSORGBACK
 10
0.0
 20
0.0
 30
0.0
  9
$USERI1
 70
     0
  9
$USERI2
 70
     0
  9
$USERI3
 70
     0
  9
$USERI4
 70
     0
  9
$USERI5
 70
     0
  9
$USERR1
 40
0.0
  9
$USERR2
 40
0.0
  9
$USERR3
 40
0.0
  9
$USERR4
 40
0.0
  9
$USERR5
 40
0.0
  9
$WORLDVIEW
 70
     1
  9
$SHADEDGE
 70
     3
  9
$SHADEDIF
 70
    70
  9
$TILEMODE
 70
     1
  9
$MAXACTVP
 70
    64
  9
$PINSBASE
 10
0.0
 20
0.0
 30
0.0
  9
$PLIMCHECK
 70
     0
  9
$PEXTMIN
 10
0.0
 20
0.0
 30
0.0
  9
$PEXTMAX
 10
420.0
 20
594.0
 30
0.0
  9
$PLIMMIN
 10
0.0
 20
0.0
  9
$PLIMMAX
 10
420.0
 20
594.0
  9
$UNITMODE
 70
     0
  9
$VISRETAIN
 70
     1
  9
$PLINEGEN
 70
     0
  9
$PSLTSCALE
 70
     1
  9
$TREEDEPTH
 70
  3020
  9
$CMLSTYLE
  2
Standard
  9
$CMLJUST
 70
     0
  9
$CMLSCALE
 40
1.0
  9
$PROXYGRAPHICS
 70
     1
  9
$MEASUREMENT
 70
     1
  9
$CELWEIGHT
370
    -1
  9
$ENDCAPS
280
     0
  9
$JOINSTYLE
280
     0
  9
$LWDISPLAY
290
     0
  9
$INSUNITS
 70
     4
  9
$HYPERLINKBASE
  1

  9
$STYLESHEET
  1

  9
$XEDIT
290
     1
  9
$CEPSNTYPE
380
     0
  9
$PSTYLEMODE
290
     1
  9
$FINGERPRINTGUID
  2
{D6D07DE0-2B32-47AD-AF63-611098D48C55}
  9
$VERSIONGUID
  2
{95D364E9-616D-40B4-BF4D-901B9464B1C4}
  9
$EXTNAMES
290
     1
  9
$PSVPSCALE
 40
0.0
  9
$OLESTARTUP
290
     0
  0
ENDSEC
  0
SECTION
  2
CLASSES
  0
CLASS
  1
ACDBDICTIONARYWDFLT
  2
AcDbDictionaryWithDefault
  3
ObjectDBX Classes
 90
        0
280
     0
281
     0
  0
CLASS
  1
MATERIAL
  2
AcDbMaterial
  3
ObjectDBX Classes
 90
     1153
280
     0
281
     0
  0
CLASS
  1
VISUALSTYLE
  2
AcDbVisualStyle
  3
ObjectDBX Classes
 90
     4095
280
     0
281
     0
  0
CLASS
  1
SCALE
  2
AcDbScale
  3
ObjectDBX Classes
 90
     1153
280
     0
281
     0
  0
CLASS
  1
TABLESTYLE
  2
AcDbTableStyle
  3
ObjectDBX Classes
 90
     4095
280
     0
281
     0
  0
CLASS
  1
MLEADERSTYLE
  2
AcDbMLeaderStyle
  3
ACDB_MLEADERSTYLE_CLASS
 90
     4095
280
     0
281
     0
  0
CLASS
  1
CELLSTYLEMAP
  2
AcDbCellStyleMap
  3
ObjectDBX Classes
 90
     1152
280
     0
281
     0
  0
CLASS
  1
DICTIONARYVAR
  2
AcDbDictionaryVar
  3
ObjectDBX Classes
 90
        0
280
     0
281
     0
  0
CLASS
  1
ACDBPLACEHOLDER
  2
AcDbPlaceHolder
  3
ObjectDBX Classes
 90
        0
280
     0
281
     0
  0
CLASS
  1
LAYOUT
  2
AcDbLayout
  3
ObjectDBX Classes
 90
        0
280
     0
281
     0
  0
CLASS
  1
ACME_DOCUMENT
  2
AcMeDbDoc
  3
AcMeServices
 90
     1024
280
     0
281
     0
  0
CLASS
  1
AMGSETTINGSOBJ
  2
AmgSettingsObj
  3
"AcadM|Product Description: AutoCAD Mechanical|Company: Autodesk, Inc."
 90
     1024
280
     0
281
     0
  0
CLASS
  1
ACMESCOPE
  2
AcMeScope
  3
AcMeServices
 90
     1024
280
     0
281
     0
  0
CLASS
  1
ACMECOMMANDHISTORY
  2
AcMeCommandHistory
  3
AcMeServices
 90
     1024
280
     0
281
     0
  0
CLASS
  1
ACIMSYSVARMAN
  2
AcImSysVarManager
  3
AcMeServices
 90
     1024
280
     0
281
     0
  0
CLASS
  1
ACIMINTSYSVAR
  2
AcImIntSysVar
  3
AcMeServices
 90
     1024
280
     0
281
     0
  0
CLASS
  1
ACMEDRAWINGMAN
  2
AcMeDrawingMan
  3
AcMeServices
 90
     1024
280
     0
281
     0
  0
CLASS
  1
ACMEVIEW
  2
AcMeView
  3
AcMeServices
 90
     1024
280
     0
281
     0
  0
CLASS
  1
ACDBENTITYCACHE
  2
AcMeEntityCache
  3
AcMeServices
 90
     1024
280
     0
281
     0
  0
CLASS
  1
ACMESTATEMGR
  2
AcMeStateMgr
  3
AcMeServices
 90
     1024
280
     0
281
     0
  0
CLASS
  1
ACGREFMASTER
  2
AcGrefMaster
  3
AcAttribServices
 90
     1024
280
     0
281
     0
  0
CLASS
  1
AM_DRAWING_MGR
  2
AcDmDwgMgr
  3
AcMechDwgViewMgmt
 90
     1024
280
     0
281
     0
  0
CLASS
  1
AM_DWG_DOCUMENT
  2
AcDmDwgDocument
  3
AcMechDwgViewMgmt
 90
     1024
280
     0
281
     0
  0
CLASS
  1
AM_DWG_SHEET
  2
AcDmSheet
  3
AcMechDwgViewMgmt
 90
     1024
280
     0
281
     0
  0
CLASS
  1
AM_VIEWDIMPARMAP
  2
AcDmViewDimParMap
  3
AcMechDwgViewMgmt
 90
     1024
280
     0
281
     0
  0
CLASS
  1
AMDTINTERNALREACTOR
  2
AmdtInternalReactor
  3
AcMeServices
 90
     1024
280
     0
281
     0
  0
CLASS
  1
ACIMREALSYSVAR
  2
AcImRealSysVar
  3
AcMeServices
 90
     1024
280
     0
281
     0
  0
CLASS
  1
AM_DWGMGR_NAME
  2
AcDmDwgMgrName
  3
AcMechDwgViewMgmt
 90
     1024
280
     0
281
     0
  0
CLASS
  1
ACME_DATABASE
  2
AcMeDbDatabase
  3
AcMeServices
 90
     1024
280
     0
281
     0
  0
CLASS
  1
ACRFINSADJUSTERMGR
  2
AcRfInsAdjusterMgr
  3
AcMeServices
 90
     1024
280
     0
281
     0
  0
CLASS
  1
ACGREFACADMASTER
  2
AcGrefacadMaster
  3
AcGrefServices
 90
     1024
280
     0
281
     0
  0
CLASS
  1
AMDTMENUSTATEMGR
  2
AmdtMenuStateMgr
  3
McadcomServices
 90
     1024
280
     0
281
     0
  0
CLASS
  1
AMDTMCOMMENUSTATE
  2
AmdtMcomMenuState
  3
McadcomServices
 90
     1024
280
     0
281
     0
  0
CLASS
  1
AMIMASTER
  2
AmiMaster
  3
AmiServices
 90
     1024
280
     0
281
     0
  0
CLASS
  1
MAPIAMMOUDLE
  2
MApiAmModule
  3
MApiAmServices
 90
     1024
280
     0
281
     0
  0
CLASS
  1
ACIMSTRSYSVAR
  2
AcImStrSysVar
  3
AcMeServices
 90
     1024
280
     0
281
     0
  0
CLASS
  1
AMDTADMENUSTATE
  2
AmdtAdMenuState
  3
DesignerServices
 90
     1024
280
     0
281
     0
  0
CLASS
  1
ADAPPL
  2
AcAdAppl
  3
DesignerServices
 90
     1024
280
     0
281
     0
  0
CLASS
  1
DEPMGR
  2
AcAdDepMgr
  3
DesignerServices
 90
     1024
280
     0
281
     0
  0
CLASS
  1
PARAMMGR
  2
AcAdParamMgr
  3
DesignerServices
 90
     1024
280
     0
281
     0
  0
CLASS
  1
PARAMSCOPE
  2
AcAdParamScope
  3
DesignerServices
 90
     1024
280
     0
281
     0
  0
CLASS
  1
NAMEDAPPL
  2
AcAdNamedAppl
  3
DesignerServices
 90
     1024
280
     0
281
     0
  0
CLASS
  1
AMDTDMMENUSTATE
  2
AmdtDmMenuState
  3
AcMechDwgViewMgmt
 90
     1024
280
     0
281
     0
  0
CLASS
  1
AMDTAMMENUSTATE
  2
AmdtAmMenuState
  3
DesignerAssemblies
 90
     1024
280
     0
281
     0
  0
CLASS
  1
ACAMPROJECT
  2
AcAmProject
  3
DesignerAssemblies
 90
     1024
280
     0
281
     0
  0
CLASS
  1
ACAMGRCOMPDEF
  2
AcAmGrCompDef
  3
DesignerAssemblies
 90
     1024
280
     0
281
     0
  0
CLASS
  1
ACAMCOMPDEF
  2
AcAmCompDef
  3
DesignerAssemblies
 90
     1024
280
     0
281
     0
  0
CLASS
  1
ACAMCOMPDEFMGR
  2
AcAmCompDefMgr
  3
DesignerAssemblies
 90
     1024
280
     0
281
     0
  0
CLASS
  1
AMCONTEXTMGR
  2
AcAmContextMgr
  3
DesignerAssemblies
 90
     1024
280
     0
281
     0
  0
CLASS
  1
ACAMCONTEXTMODELER
  2
AcAmContextModeler
  3
DesignerAssemblies
 90
     1024
280
     0
281
     0
  0
CLASS
  1
ACMDATADICTIONARY
  2
AcmDataDictionary
  3
"AcmSymBB|Product Description: AutoCAD Mechanical|Company: Autodesk, Inc."
 90
     1024
280
     0
281
     0
  0
CLASS
  1
CATALOGSTATE
  2
AcAmCatalogState
  3
DesignerAssemblies
 90
     1024
280
     0
281
     0
  0
CLASS
  1
ACAMGRCOMPDEFSET
  2
AcAmGrCompDefSet
  3
DesignerAssemblies
 90
     1024
280
     0
281
     0
  0
CLASS
  1
AMDTBROWSERDBTAB
  2
AmdtBrowserDbTab
  3
McadcomServices
 90
     1024
280
     0
281
     0
  0
CLASS
  1
CBROWSERAPPOBJECT
  2
CBrowserAppObject
  3
McadcomServices
 90
     1024
280
     0
281
     0
  0
CLASS
  1
DM_PLACEHOLDER
  2
AcDmSelsetPlaceholder
  3
AcMechDwgViewMgmt
 90
     1024
280
     0
281
     0
  0
CLASS
  1
EXACXREFPANELOBJECT
  2
ExAcXREFPanelObject
  3
EXAC_ESW
 90
     1025
280
     0
281
     0
  0
CLASS
  1
NPOCOLLECTION
  2
AcDbImpNonPersistentObjectsCollection
  3
ObjectDBX Classes
 90
     1153
280
     0
281
     0
  0
CLASS
  1
ACMSTANDARDISO
  2
AcmStandardISO
  3
"Amdt_StdImp|Product Description: AutoCAD Mechanical|Company: Autodesk, Inc."
 90
     1024
280
     0
281
     0
  0
CLASS
  1
AMDTEDGESTANDARDISO13715
  2
AmdtEdgeStdISO13715
  3
"Amdt_StdImp|Product Description: AutoCAD Mechanical|Company: Autodesk, Inc."
 90
     1024
280
     0
281
     0
  0
CLASS
  1
ACMSURFSTANDARDISO2002
  2
AcmSurfTextStdISO2002
  3
"Amdt_StdImp|Product Description: AutoCAD Mechanical|Company: Autodesk, Inc."
 90
     1024
280
     0
281
     0
  0
CLASS
  1
ACMFCFSTANDARDISO
  2
AcmFCFStdISO
  3
"Amdt_StdImp|Product Description: AutoCAD Mechanical|Company: Autodesk, Inc."
 90
     1024
280
     0
281
     0
  0
CLASS
  1
ACMWELDSTANDARDISO
  2
AcmWeldingStdISO
  3
"Amdt_StdImp|Product Description: AutoCAD Mechanical|Company: Autodesk, Inc."
 90
     1024
280
     0
281
     0
  0
CLASS
  1
ACMIDSTANDARDISO
  2
AcmIdStdISO
  3
"Amdt_StdImp|Product Description: AutoCAD Mechanical|Company: Autodesk, Inc."
 90
     1024
280
     0
281
     0
  0
CLASS
  1
ACMDATUMSTANDARDISO
  2
AcmDatumStdISO
  3
"Amdt_StdImp|Product Description: AutoCAD Mechanical|Company: Autodesk, Inc."
 90
     1024
280
     0
281
     0
  0
CLASS
  1
ACMBOMSTANDARDISO
  2
AcmBOMStdISO
  3
"Amdt_StdImp|Product Description: AutoCAD Mechanical|Company: Autodesk, Inc."
 90
     1024
280
     0
281
     0
  0
CLASS
  1
ACMDETAILSTANDARDISO
  2
AmdtDetailSymStdISO
  3
"Amdt_StdImp|Product Description: AutoCAD Mechanical|Company: Autodesk, Inc."
 90
     1024
280
     0
281
     0
  0
CLASS
  1
ACMSECTIONSTANDARDISO2001
  2
AmdtSectionSymStdISO2001
  3
"Amdt_StdImp|Product Description: AutoCAD Mechanical|Company: Autodesk, Inc."
 90
     1024
280
     0
281
     0
  0
CLASS
  1
ACMCENTERLINESTANDARDISO
  2
AmdtCenterLineStdISO
  3
"Amdt_StdImp|Product Description: AutoCAD Mechanical|Company: Autodesk, Inc."
 90
     1024
280
     0
281
     0
  0
CLASS
  1
ACMTHREADLINESTANDARDISO
  2
AmdtThreadLineStdISO
  3
"Amdt_StdImp|Product Description: AutoCAD Mechanical|Company: Autodesk, Inc."
 90
     1024
280
     0
281
     0
  0
CLASS
  1
ACMNOTESTANDARDISO
  2
AmdtNoteStdISO
  3
"Amdt_StdImp|Product Description: AutoCAD Mechanical|Company: Autodesk, Inc."
 90
     1024
280
     0
281
     0
  0
CLASS
  1
ACMTAPERSTANDARDISO
  2
AcmTaperStdISO
  3
"Amdt_StdImp|Product Description: AutoCAD Mechanical|Company: Autodesk, Inc."
 90
     1024
280
     0
281
     0
  0
CLASS
  1
ACMANOOTATIONVIEWSTANDARDISO
  2
AmdtAnViewStdISO
  3
"Amdt_StdImp|Product Description: AutoCAD Mechanical|Company: Autodesk, Inc."
 90
     1024
280
     0
281
     0
  0
CLASS
  1
ACAMGLAYSTD
  2
AcAmgLayStd
  3
"AmgLay|Product Description: AutoCAD Mechanical|Company: Autodesk, Inc."
 90
     1024
280
     0
281
     0
  0
CLASS
  1
ACAMGDIMSTD
  2
AcAmgDimStd
  3
"AmgDim|Product Description: AutoCAD Mechanical|Company: Autodesk, Inc."
 90
     1024
280
     0
281
     0
  0
CLASS
  1
ACAMGHOLECHARTSTDISO
  2
AcAmgHoleChartStdISO
  3
AmgDim|Product Description: AutoCAD Mechanical|Company: Autodesk, Inc.
 90
     1024
280
     0
281
     0
  0
CLASS
  1
AMGOBJPROPCFG
  2
AmgObjPropCfg
  3
"AmgLay|Product Description: AutoCAD Mechanical|Company: Autodesk, Inc."
 90
     1025
280
     0
281
     0
  0
CLASS
  1
ACAMGTITLESTD
  2
AcAmgTitleStd
  3
"AmgTitle|Product Description: AutoCAD Mechanical|Company: Autodesk, Inc."
 90
     4095
280
     0
281
     0
  0
CLASS
  1
AMDTNOTETEMPLATEDB
  2
AmdtNoteTemplateDB
  3
AcmSymBB|Product Description: AutoCAD Mechanical|Company: Autodesk, Inc.
 90
     1024
280
     0
281
     0
  0
CLASS
  1
ACAMGFILTERDAT
  2
AcAmgFilterDat
  3
"AcadM|Product Description: AutoCAD Mechanical|Company: Autodesk, Inc."
 90
     1024
280
     0
281
     0
  0
ENDSEC
  0
SECTION
  2
TABLES
  0
TABLE
  2
VPORT
  5
8
102
{ACAD_XDICTIONARY
360
870
102
}
330
0
100
AcDbSymbolTable
 70
     1
  0
VPORT
  5
62
330
8
100
AcDbSymbolTableRecord
100
AcDbViewportTableRecord
  2
*Active
 70
     0
 10
0.0
 20
0.0
 11
1.0
 21
1.0
 12
314.6502850523352
 22
305.146285911227
 13
0.0
 23
0.0
 14
1.0
 24
1.0
 15
0.0
 25
0.0
 16
0.0
 26
0.0
 36
1.0
 17
0.0
 27
0.0
 37
0.0
 40
593.9999997233992
 41
1.793142857142857
 42
50.0
 43
0.0
 44
0.0
 50
0.0
 51
0.0
 71
     0
 72
   100
 73
     1
 74
     1
 75
     0
 76
     0
 77
     0
 78
     0
281
     0
 65
     1
110
0.0
120
0.0
130
0.0
111
1.0
121
0.0
131
0.0
112
0.0
122
1.0
132
0.0
 79
     0
146
0.0
  0
ENDTAB
  0
TABLE
  2
LTYPE
  5
5
330
0
100
AcDbSymbolTable
 70
    69
  0
LTYPE
  5
66
330
5
100
AcDbSymbolTableRecord
100
AcDbLinetypeTableRecord
  2
ByBlock
 70
     0
  3

 72
    65
 73
     0
 40
0.0
  0
LTYPE
  5
67
330
5
100
AcDbSymbolTableRecord
100
AcDbLinetypeTableRecord
  2
ByLayer
 70
     0
  3

 72
    65
 73
     0
 40
0.0
  0
LTYPE
  5
68
330
5
100
AcDbSymbolTableRecord
100
AcDbLinetypeTableRecord
  2
Continuous
 70
     0
  3
Solid line
 72
    65
 73
     0
 40
0.0
  0
LTYPE
  5
7F
330
5
100
AcDbSymbolTableRecord
100
AcDbLinetypeTableRecord
  2
Section_View_Lines
 70
     0
  3
Section View Lines
 72
    65
 73
     4
 40
0.8406
 49
0.6614
 74
     0
 49
-0.0827
 74
     0
 49
0.0138
 74
     0
 49
-0.0827
 74
     0
  0
LTYPE
  5
80
330
5
100
AcDbSymbolTableRecord
100
AcDbLinetypeTableRecord
  2
CHAIN
 70
     0
  3
Chain ____ _ ____ _ ____ _ ____ _ ____ _ ____
 72
    65
 73
     4
 40
0.3543
 49
0.2362
 74
     0
 49
-0.0295
 74
     0
 49
0.0591
 74
     0
 49
-0.0295
 74
     0
  0
LTYPE
  5
81
330
5
100
AcDbSymbolTableRecord
100
AcDbLinetypeTableRecord
  2
DASH_DOT
 70
     0
  3
Dash dot _._._._._._._._._._._._._._._.
 72
    65
 73
     4
 40
0.182
 49
0.1181
 74
     0
 49
-0.0295
 74
     0
 49
0.0049
 74
     0
 49
-0.0295
 74
     0
  0
LTYPE
  5
82
330
5
100
AcDbSymbolTableRecord
100
AcDbLinetypeTableRecord
  2
DASH_DOUBLE_DOT
 70
     0
  3
Dash Double Dot __ __ . __ __ . __ __ . __ _
 72
    65
 73
     6
 40
0.2164
 49
0.1181
 74
     0
 49
-0.0295
 74
     0
 49
0.0049
 74
     0
 49
-0.0295
 74
     0
 49
0.0049
 74
     0
 49
-0.0295
 74
     0
  0
LTYPE
  5
83
330
5
100
AcDbSymbolTableRecord
100
AcDbLinetypeTableRecord
  2
DASH_TRIPLE_DOT
 70
     0
  3
Dash Triple-Dot _ . . . _ . . . _ . . . _
 72
    65
 73
     8
 40
0.2508
 49
0.1181
 74
     0
 49
-0.0295
 74
     0
 49
0.0049
 74
     0
 49
-0.0295
 74
     0
 49
0.0049
 74
     0
 49
-0.0295
 74
     0
 49
0.0049
 74
     0
 49
-0.0295
 74
     0
  0
LTYPE
  5
84
330
5
100
AcDbSymbolTableRecord
100
AcDbLinetypeTableRecord
  2
DASHED
 70
     0
  3
Dashed __ __ __ __ __ __ __ __ __ __ __ __ __ _
 72
    65
 73
     2
 40
0.2068
 49
0.1655
 74
     0
 49
-0.0413
 74
     0
  0
LTYPE
  5
85
330
5
100
AcDbSymbolTableRecord
100
AcDbLinetypeTableRecord
  2
DASHED_SPACE
 70
     0
  3
Dashed Space __ __ __ __ __ __ __ __ __ __ __ _
 72
    65
 73
     2
 40
0.2067
 49
0.1654
 74
     0
 49
-0.0413
 74
     0
  0
LTYPE
  5
86
330
5
100
AcDbSymbolTableRecord
100
AcDbLinetypeTableRecord
  2
DOTTED
 70
     0
  3
Dotted . . . . . . . . . . . . . . . . . . . . 
 72
    65
 73
     2
 40
0.0481
 49
0.0068
 74
     0
 49
-0.0413
 74
     0
  0
LTYPE
  5
87
330
5
100
AcDbSymbolTableRecord
100
AcDbLinetypeTableRecord
  2
DOUBLE_DASH_CHAIN
 70
     0
  3
Double Dash Chain ___ _ _ ___ _ _ ___ _ _ ___ _
 72
    65
 73
     6
 40
1.240299999999999
 49
0.6614
 74
     0
 49
-0.0827
 74
     0
 49
0.1654
 74
     0
 49
-0.0827
 74
     0
 49
0.1654
 74
     0
 49
-0.0827
 74
     0
  0
LTYPE
  5
88
330
5
100
AcDbSymbolTableRecord
100
AcDbLinetypeTableRecord
  2
DOUBLE_DASH_DOT
 70
     0
  3
Double Dash Dot __ __ . __ __ . __ __ . __ _
 72
    65
 73
     6
 40
0.3296
 49
0.1181
 74
     0
 49
-0.0295
 74
     0
 49
0.1181
 74
     0
 49
-0.0295
 74
     0
 49
0.0049
 74
     0
 49
-0.0295
 74
     0
  0
LTYPE
  5
89
330
5
100
AcDbSymbolTableRecord
100
AcDbLinetypeTableRecord
  2
DOUBLE_DASH_DOUBLE_DOT
 70
     0
  3
Double Dash Double Dot _ _ . . _ _ . . _ _
 72
    65
 73
     8
 40
0.364
 49
0.1181
 74
     0
 49
-0.0295
 74
     0
 49
0.1181
 74
     0
 49
-0.0295
 74
     0
 49
0.0049
 74
     0
 49
-0.0295
 74
     0
 49
0.0049
 74
     0
 49
-0.0295
 74
     0
  0
LTYPE
  5
8A
330
5
100
AcDbSymbolTableRecord
100
AcDbLinetypeTableRecord
  2
DOUBLE_DASH_TRIPLE_DOT
 70
     0
  3
Double Dash Triple Dot __ __ . . . __ __ . . .
 72
    65
 73
    10
 40
0.3984
 49
0.1181
 74
     0
 49
-0.0295
 74
     0
 49
0.1181
 74
     0
 49
-0.0295
 74
     0
 49
0.0049
 74
     0
 49
-0.0295
 74
     0
 49
0.0049
 74
     0
 49
-0.0295
 74
     0
 49
0.0049
 74
     0
 49
-0.0295
 74
     0
  0
LTYPE
  5
8B
330
5
100
AcDbSymbolTableRecord
100
AcDbLinetypeTableRecord
  2
LONG_DASH_DOTTED
 70
     0
  3
Long Dash Dotted ____ . ____ . ____ . ____ . _
 72
    65
 73
     4
 40
0.3001
 49
0.2362
 74
     0
 49
-0.0295
 74
     0
 49
0.0049
 74
     0
 49
-0.0295
 74
     0
  0
LTYPE
  5
8C
330
5
100
AcDbSymbolTableRecord
100
AcDbLinetypeTableRecord
  2
LONG_DASH_DOUBLE_DOT
 70
     0
  3
Long Dash Double Dot ____ . . ____ . . ____ . .
 72
    65
 73
     6
 40
0.3345
 49
0.2362
 74
     0
 49
-0.0295
 74
     0
 49
0.0049
 74
     0
 49
-0.0295
 74
     0
 49
0.0049
 74
     0
 49
-0.0295
 74
     0
  0
LTYPE
  5
8D
330
5
100
AcDbSymbolTableRecord
100
AcDbLinetypeTableRecord
  2
LONG_DASH_TRIPLE_DOT
 70
     0
  3
Long Dash Triple Dot ____ ... ____ ... ____
 72
    65
 73
     8
 40
0.3689
 49
0.2362
 74
     0
 49
-0.0295
 74
     0
 49
0.0049
 74
     0
 49
-0.0295
 74
     0
 49
0.0049
 74
     0
 49
-0.0295
 74
     0
 49
0.0049
 74
     0
 49
-0.0295
 74
     0
  0
LTYPE
  5
8E
330
5
100
AcDbSymbolTableRecord
100
AcDbLinetypeTableRecord
  2
BORDER
 70
     0
  3
Border __ __ . __ __ . __ __ . __ __ . __ __ .
 72
    65
 73
     6
 40
44.45
 49
12.7
 74
     0
 49
-6.349999999999999
 74
     0
 49
12.7
 74
     0
 49
-6.349999999999999
 74
     0
 49
0.0
 74
     0
 49
-6.349999999999999
 74
     0
  0
LTYPE
  5
8F
330
5
100
AcDbSymbolTableRecord
100
AcDbLinetypeTableRecord
  2
BORDER2
 70
     0
  3
Border (.5x) __.__.__.__.__.__.__.__.__.__.__.
 72
    65
 73
     6
 40
22.225
 49
6.349999999999999
 74
     0
 49
-3.174999999999999
 74
     0
 49
6.349999999999999
 74
     0
 49
-3.174999999999999
 74
     0
 49
0.0
 74
     0
 49
-3.174999999999999
 74
     0
  0
LTYPE
  5
90
330
5
100
AcDbSymbolTableRecord
100
AcDbLinetypeTableRecord
  2
BORDERX2
 70
     0
  3
Border (2x) ____  ____  .  ____  ____  .  ___
 72
    65
 73
     6
 40
88.9
 49
25.4
 74
     0
 49
-12.7
 74
     0
 49
25.4
 74
     0
 49
-12.7
 74
     0
 49
0.0
 74
     0
 49
-12.7
 74
     0
  0
LTYPE
  5
91
330
5
100
AcDbSymbolTableRecord
100
AcDbLinetypeTableRecord
  2
CENTER
 70
     0
  3
Center ____ _ ____ _ ____ _ ____ _ ____ _ ____
 72
    65
 73
     4
 40
50.8
 49
31.75
 74
     0
 49
-6.349999999999999
 74
     0
 49
6.349999999999999
 74
     0
 49
-6.349999999999999
 74
     0
  0
LTYPE
  5
92
330
5
100
AcDbSymbolTableRecord
100
AcDbLinetypeTableRecord
  2
CENTER2
 70
     0
  3
Center (.5x) ___ _ ___ _ ___ _ ___ _ ___ _ ___
 72
    65
 73
     4
 40
28.575
 49
19.05
 74
     0
 49
-3.174999999999999
 74
     0
 49
3.174999999999999
 74
     0
 49
-3.174999999999999
 74
     0
  0
LTYPE
  5
93
330
5
100
AcDbSymbolTableRecord
100
AcDbLinetypeTableRecord
  2
CENTERX2
 70
     0
  3
Center (2x) ________  __  ________  __  _____
 72
    65
 73
     4
 40
101.6
 49
63.5
 74
     0
 49
-12.7
 74
     0
 49
12.7
 74
     0
 49
-12.7
 74
     0
  0
LTYPE
  5
94
330
5
100
AcDbSymbolTableRecord
100
AcDbLinetypeTableRecord
  2
DASHDOT2
 70
     0
  3
Dash dot (.5x) _._._._._._._._._._._._._._._.
 72
    65
 73
     4
 40
12.7
 49
6.349999999999999
 74
     0
 49
-3.174999999999999
 74
     0
 49
0.0
 74
     0
 49
-3.174999999999999
 74
     0
  0
LTYPE
  5
95
330
5
100
AcDbSymbolTableRecord
100
AcDbLinetypeTableRecord
  2
DASHDOTX2
 70
     0
  3
Dash dot (2x) ____  .  ____  .  ____  .  ___
 72
    65
 73
     4
 40
50.8
 49
25.4
 74
     0
 49
-12.7
 74
     0
 49
0.0
 74
     0
 49
-12.7
 74
     0
  0
LTYPE
  5
96
330
5
100
AcDbSymbolTableRecord
100
AcDbLinetypeTableRecord
  2
DASHED2
 70
     0
  3
Dashed (.5x) _ _ _ _ _ _ _ _ _ _ _ _ _ _ _ _ _
 72
    65
 73
     2
 40
9.524999999999998
 49
6.349999999999999
 74
     0
 49
-3.174999999999999
 74
     0
  0
LTYPE
  5
97
330
5
100
AcDbSymbolTableRecord
100
AcDbLinetypeTableRecord
  2
DASHEDX2
 70
     0
  3
Dashed (2x) ____  ____  ____  ____  ____  ___
 72
    65
 73
     2
 40
38.1
 49
25.4
 74
     0
 49
-12.7
 74
     0
  0
LTYPE
  5
98
330
5
100
AcDbSymbolTableRecord
100
AcDbLinetypeTableRecord
  2
DIVIDE
 70
     0
  3
Divide ____ . . ____ . . ____ . . ____ . . ____
 72
    65
 73
     6
 40
31.75
 49
12.7
 74
     0
 49
-6.349999999999999
 74
     0
 49
0.0
 74
     0
 49
-6.349999999999999
 74
     0
 49
0.0
 74
     0
 49
-6.349999999999999
 74
     0
  0
LTYPE
  5
99
330
5
100
AcDbSymbolTableRecord
100
AcDbLinetypeTableRecord
  2
DIVIDE2
 70
     0
  3
Divide (.5x) __..__..__..__..__..__..__..__.._
 72
    65
 73
     6
 40
15.875
 49
6.349999999999999
 74
     0
 49
-3.174999999999999
 74
     0
 49
0.0
 74
     0
 49
-3.174999999999999
 74
     0
 49
0.0
 74
     0
 49
-3.174999999999999
 74
     0
  0
LTYPE
  5
9A
330
5
100
AcDbSymbolTableRecord
100
AcDbLinetypeTableRecord
  2
DIVIDEX2
 70
     0
  3
Divide (2x) ________  .  .  ________  .  .  _
 72
    65
 73
     6
 40
63.49999999999999
 49
25.4
 74
     0
 49
-12.7
 74
     0
 49
0.0
 74
     0
 49
-12.7
 74
     0
 49
0.0
 74
     0
 49
-12.7
 74
     0
  0
LTYPE
  5
9B
330
5
100
AcDbSymbolTableRecord
100
AcDbLinetypeTableRecord
  2
DOT
 70
     0
  3
Dot . . . . . . . . . . . . . . . . . . . . . .
 72
    65
 73
     2
 40
6.349999999999999
 49
0.0
 74
     0
 49
-6.349999999999999
 74
     0
  0
LTYPE
  5
9C
330
5
100
AcDbSymbolTableRecord
100
AcDbLinetypeTableRecord
  2
DOT2
 70
     0
  3
Dot (.5x) .....................................
 72
    65
 73
     2
 40
3.174999999999999
 49
0.0
 74
     0
 49
-3.174999999999999
 74
     0
  0
LTYPE
  5
9D
330
5
100
AcDbSymbolTableRecord
100
AcDbLinetypeTableRecord
  2
DOTX2
 70
     0
  3
Dot (2x) .  .  .  .  .  .  .  .  .  .  .  .  . 
 72
    65
 73
     2
 40
12.7
 49
0.0
 74
     0
 49
-12.7
 74
     0
  0
LTYPE
  5
9E
330
5
100
AcDbSymbolTableRecord
100
AcDbLinetypeTableRecord
  2
HIDDEN
 70
     0
  3
Hidden __ __ __ __ __ __ __ __ __ __ __ __ __ _
 72
    65
 73
     2
 40
9.524999999999998
 49
6.349999999999999
 74
     0
 49
-3.174999999999999
 74
     0
  0
LTYPE
  5
9F
330
5
100
AcDbSymbolTableRecord
100
AcDbLinetypeTableRecord
  2
HIDDEN2
 70
     0
  3
Hidden (.5x) _ _ _ _ _ _ _ _ _ _ _ _ _ _ _ _ _
 72
    65
 73
     2
 40
4.762499999999999
 49
3.174999999999999
 74
     0
 49
-1.587499999999999
 74
     0
  0
LTYPE
  5
A0
330
5
100
AcDbSymbolTableRecord
100
AcDbLinetypeTableRecord
  2
HIDDENX2
 70
     0
  3
Hidden (2x) ____ ____ ____ ____ ____ ____ ____
 72
    65
 73
     2
 40
19.05
 49
12.7
 74
     0
 49
-6.349999999999999
 74
     0
  0
LTYPE
  5
A1
330
5
100
AcDbSymbolTableRecord
100
AcDbLinetypeTableRecord
  2
PHANTOM
 70
     0
  3
Phantom ______  __  __  ______  __  __  ______
 72
    65
 73
     6
 40
63.5
 49
31.75
 74
     0
 49
-6.349999999999999
 74
     0
 49
6.349999999999999
 74
     0
 49
-6.349999999999999
 74
     0
 49
6.349999999999999
 74
     0
 49
-6.349999999999999
 74
     0
  0
LTYPE
  5
A2
330
5
100
AcDbSymbolTableRecord
100
AcDbLinetypeTableRecord
  2
PHANTOM2
 70
     0
  3
Phantom (.5x) ___ _ _ ___ _ _ ___ _ _ ___ _ _
 72
    65
 73
     6
 40
31.75
 49
15.875
 74
     0
 49
-3.174999999999999
 74
     0
 49
3.174999999999999
 74
     0
 49
-3.174999999999999
 74
     0
 49
3.174999999999999
 74
     0
 49
-3.174999999999999
 74
     0
  0
LTYPE
  5
A3
330
5
100
AcDbSymbolTableRecord
100
AcDbLinetypeTableRecord
  2
PHANTOMX2
 70
     0
  3
Phantom (2x) ____________    ____    ____   _
 72
    65
 73
     6
 40
127.0
 49
63.5
 74
     0
 49
-12.7
 74
     0
 49
12.7
 74
     0
 49
-12.7
 74
     0
 49
12.7
 74
     0
 49
-12.7
 74
     0
  0
LTYPE
  5
A4
330
5
100
AcDbSymbolTableRecord
100
AcDbLinetypeTableRecord
  2
ACAD_ISO02W100
 70
     0
  3
ISO dash __ __ __ __ __ __ __ __ __ __ __ __ __
 72
    65
 73
     2
 40
15.0
 49
12.0
 74
     0
 49
-3.0
 74
     0
  0
LTYPE
  5
A5
330
5
100
AcDbSymbolTableRecord
100
AcDbLinetypeTableRecord
  2
ACAD_ISO03W100
 70
     0
  3
ISO dash space __    __    __    __    __    __
 72
    65
 73
     2
 40
30.0
 49
12.0
 74
     0
 49
-18.0
 74
     0
  0
LTYPE
  5
A6
330
5
100
AcDbSymbolTableRecord
100
AcDbLinetypeTableRecord
  2
ACAD_ISO04W100
 70
     0
  3
ISO long-dash dot ____ . ____ . ____ . ____ . _
 72
    65
 73
     4
 40
30.0
 49
24.0
 74
     0
 49
-3.0
 74
     0
 49
0.0
 74
     0
 49
-3.0
 74
     0
  0
LTYPE
  5
A7
330
5
100
AcDbSymbolTableRecord
100
AcDbLinetypeTableRecord
  2
ACAD_ISO05W100
 70
     0
  3
ISO long-dash double-dot ____ .. ____ .. ____ .
 72
    65
 73
     6
 40
33.0
 49
24.0
 74
     0
 49
-3.0
 74
     0
 49
0.0
 74
     0
 49
-3.0
 74
     0
 49
0.0
 74
     0
 49
-3.0
 74
     0
  0
LTYPE
  5
A8
330
5
100
AcDbSymbolTableRecord
100
AcDbLinetypeTableRecord
  2
ACAD_ISO06W100
 70
     0
  3
ISO long-dash triple-dot ____ ... ____ ... ____
 72
    65
 73
     8
 40
36.0
 49
24.0
 74
     0
 49
-3.0
 74
     0
 49
0.0
 74
     0
 49
-3.0
 74
     0
 49
0.0
 74
     0
 49
-3.0
 74
     0
 49
0.0
 74
     0
 49
-3.0
 74
     0
  0
LTYPE
  5
A9
330
5
100
AcDbSymbolTableRecord
100
AcDbLinetypeTableRecord
  2
ACAD_ISO07W100
 70
     0
  3
ISO dot . . . . . . . . . . . . . . . . . . . .
 72
    65
 73
     2
 40
3.0
 49
0.0
 74
     0
 49
-3.0
 74
     0
  0
LTYPE
  5
AA
330
5
100
AcDbSymbolTableRecord
100
AcDbLinetypeTableRecord
  2
ACAD_ISO08W100
 70
     0
  3
ISO long-dash short-dash ____ __ ____ __ ____ _
 72
    65
 73
     4
 40
36.0
 49
24.0
 74
     0
 49
-3.0
 74
     0
 49
6.0
 74
     0
 49
-3.0
 74
     0
  0
LTYPE
  5
AB
330
5
100
AcDbSymbolTableRecord
100
AcDbLinetypeTableRecord
  2
ACAD_ISO09W100
 70
     0
  3
ISO long-dash double-short-dash ____ __ __ ____
 72
    65
 73
     6
 40
45.0
 49
24.0
 74
     0
 49
-3.0
 74
     0
 49
6.0
 74
     0
 49
-3.0
 74
     0
 49
6.0
 74
     0
 49
-3.0
 74
     0
  0
LTYPE
  5
AC
330
5
100
AcDbSymbolTableRecord
100
AcDbLinetypeTableRecord
  2
ACAD_ISO10W100
 70
     0
  3
ISO dash dot __ . __ . __ . __ . __ . __ . __ .
 72
    65
 73
     4
 40
18.0
 49
12.0
 74
     0
 49
-3.0
 74
     0
 49
0.0
 74
     0
 49
-3.0
 74
     0
  0
LTYPE
  5
AD
330
5
100
AcDbSymbolTableRecord
100
AcDbLinetypeTableRecord
  2
ACAD_ISO11W100
 70
     0
  3
ISO double-dash dot __ __ . __ __ . __ __ . __ 
 72
    65
 73
     6
 40
33.0
 49
12.0
 74
     0
 49
-3.0
 74
     0
 49
12.0
 74
     0
 49
-3.0
 74
     0
 49
0.0
 74
     0
 49
-3.0
 74
     0
  0
LTYPE
  5
AE
330
5
100
AcDbSymbolTableRecord
100
AcDbLinetypeTableRecord
  2
ACAD_ISO12W100
 70
     0
  3
ISO dash double-dot __ . . __ . . __ . . __ . .
 72
    65
 73
     6
 40
21.0
 49
12.0
 74
     0
 49
-3.0
 74
     0
 49
0.0
 74
     0
 49
-3.0
 74
     0
 49
0.0
 74
     0
 49
-3.0
 74
     0
  0
LTYPE
  5
AF
330
5
100
AcDbSymbolTableRecord
100
AcDbLinetypeTableRecord
  2
ACAD_ISO13W100
 70
     0
  3
ISO double-dash double-dot __ __ . . __ __ . . 
 72
    65
 73
     8
 40
36.0
 49
12.0
 74
     0
 49
-3.0
 74
     0
 49
12.0
 74
     0
 49
-3.0
 74
     0
 49
0.0
 74
     0
 49
-3.0
 74
     0
 49
0.0
 74
     0
 49
-3.0
 74
     0
  0
LTYPE
  5
B0
330
5
100
AcDbSymbolTableRecord
100
AcDbLinetypeTableRecord
  2
ACAD_ISO14W100
 70
     0
  3
ISO dash triple-dot __ . . . __ . . . __ . . . 
 72
    65
 73
     8
 40
24.0
 49
12.0
 74
     0
 49
-3.0
 74
     0
 49
0.0
 74
     0
 49
-3.0
 74
     0
 49
0.0
 74
     0
 49
-3.0
 74
     0
 49
0.0
 74
     0
 49
-3.0
 74
     0
  0
LTYPE
  5
B1
330
5
100
AcDbSymbolTableRecord
100
AcDbLinetypeTableRecord
  2
ACAD_ISO15W100
 70
     0
  3
ISO double-dash triple-dot __ __ . . . __ __ . 
 72
    65
 73
    10
 40
39.0
 49
12.0
 74
     0
 49
-3.0
 74
     0
 49
12.0
 74
     0
 49
-3.0
 74
     0
 49
0.0
 74
     0
 49
-3.0
 74
     0
 49
0.0
 74
     0
 49
-3.0
 74
     0
 49
0.0
 74
     0
 49
-3.0
 74
     0
  0
LTYPE
  5
B4
330
5
100
AcDbSymbolTableRecord
100
AcDbLinetypeTableRecord
  2
FENCELINE1
 70
     0
  3
Fenceline circle ----0-----0----0-----0----0---
 72
    65
 73
     4
 40
36.83
 49
6.349999999999999
 74
     0
 49
-2.54
 74
     4
 75
   133
340
B3
 46
2.54
 50
0.0
 44
-2.54
 45
0.0
 49
-2.54
 74
     0
 49
25.4
 74
     0
  0
LTYPE
  5
B5
330
5
100
AcDbSymbolTableRecord
100
AcDbLinetypeTableRecord
  2
FENCELINE2
 70
     0
  3
Fenceline square ----[]-----[]----[]-----[]----
 72
    65
 73
     4
 40
36.83
 49
6.349999999999999
 74
     0
 49
-2.54
 74
     4
 75
   132
340
B3
 46
2.54
 50
0.0
 44
-2.54
 45
0.0
 49
-2.54
 74
     0
 49
25.4
 74
     0
  0
LTYPE
  5
B6
330
5
100
AcDbSymbolTableRecord
100
AcDbLinetypeTableRecord
  2
TRACKS
 70
     0
  3
Tracks -|-|-|-|-|-|-|-|-|-|-|-|-|-|-|-|-|-|-|-|
 72
    65
 73
     2
 40
7.62
 49
3.81
 74
     4
 75
   130
340
B3
 46
6.349999999999999
 50
0.0
 44
0.0
 45
0.0
 49
3.81
 74
     0
  0
LTYPE
  5
B7
330
5
100
AcDbSymbolTableRecord
100
AcDbLinetypeTableRecord
  2
BATTING
 70
     0
  3
Batting SSSSSSSSSSSSSSSSSSSSSSSSSSSSSSSSSSSSSSS
 72
    65
 73
     4
 40
10.16254
 49
0.00254
 74
     0
 49
-2.54
 74
     4
 75
   134
340
B3
 46
2.54
 50
0.0
 44
-2.54
 45
0.0
 49
-5.08
 74
     4
 75
   134
340
B3
 46
2.54
 50
180.0
 44
2.54
 45
0.0
 49
-2.54
 74
     0
  0
LTYPE
  5
B8
330
5
100
AcDbSymbolTableRecord
100
AcDbLinetypeTableRecord
  2
HOT_WATER_SUPPLY
 70
     0
  3
Hot water supply ---- HW ---- HW ---- HW ----
 72
    65
 73
     3
 40
22.86
 49
12.7
 74
     0
 49
-5.08
 74
     2
 75
     0
340
60
 46
2.54
 50
0.0
 44
-2.54
 45
-1.27
  9
HW
 49
-5.08
 74
     0
  0
LTYPE
  5
B9
330
5
100
AcDbSymbolTableRecord
100
AcDbLinetypeTableRecord
  2
GAS_LINE
 70
     0
  3
Gas line ----GAS----GAS----GAS----GAS----GAS---
 72
    65
 73
     3
 40
24.13
 49
12.7
 74
     0
 49
-5.08
 74
     2
 75
     0
340
60
 46
2.54
 50
0.0
 44
-2.54
 45
-1.27
  9
GAS
 49
-6.349999999999999
 74
     0
  0
LTYPE
  5
BA
330
5
100
AcDbSymbolTableRecord
100
AcDbLinetypeTableRecord
  2
ZIGZAG
 70
     0
  3
Zig zag /\/\/\/\/\/\/\/\/\/\/\/\/\/\/\/\/\/\/\/
 72
    65
 73
     4
 40
20.32254
 49
0.00254
 74
     0
 49
-5.08
 74
     4
 75
   131
340
B3
 46
5.08
 50
0.0
 44
-5.08
 45
0.0
 49
-10.16
 74
     4
 75
   131
340
B3
 46
5.08
 50
180.0
 44
5.08
 45
0.0
 49
-5.08
 74
     0
  0
LTYPE
  5
945
330
5
100
AcDbSymbolTableRecord
100
AcDbLinetypeTableRecord
  2
AM_ISO02W050
 70
     0
  3
__ __ __ __ __ __ __ __ __ __ __ __ __ __ __
 72
    65
 73
     2
 40
7.5
 49
6.0
 74
     0
 49
-1.5
 74
     0
  0
LTYPE
  5
946
330
5
100
AcDbSymbolTableRecord
100
AcDbLinetypeTableRecord
  2
AM_ISO08W050
 70
     0
  3
____ . ____ . ____ . ____ . ____ . ____ . ____
 72
    65
 73
     4
 40
18.0
 49
12.0
 74
     0
 49
-1.5
 74
     0
 49
3.0
 74
     0
 49
-1.5
 74
     0
  0
LTYPE
  5
947
330
5
100
AcDbSymbolTableRecord
100
AcDbLinetypeTableRecord
  2
AM_ISO09W050
 70
     0
  3
_____ . . _____ . . _____ . . ____ .. ____
 72
    65
 73
     6
 40
22.5
 49
12.0
 74
     0
 49
-1.5
 74
     0
 49
3.0
 74
     0
 49
-1.5
 74
     0
 49
3.0
 74
     0
 49
-1.5
 74
     0
  0
LTYPE
  5
948
330
5
100
AcDbSymbolTableRecord
100
AcDbLinetypeTableRecord
  2
Amconstr
 70
     0
  3
_______________________
 72
    65
 73
     2
 40
9999.0
 49
9999.0
 74
     0
 49
0.0
 74
     0
  0
LTYPE
  5
949
330
5
100
AcDbSymbolTableRecord
100
AcDbLinetypeTableRecord
  2
AM_ISO08W050x2
 70
     0
  3
__ . __ . __ . __ . __ . __
 72
    65
 73
     4
 40
9.0
 49
6.0
 74
     0
 49
-0.75
 74
     0
 49
1.5
 74
     0
 49
-0.75
 74
     0
  0
LTYPE
  5
94A
330
5
100
AcDbSymbolTableRecord
100
AcDbLinetypeTableRecord
  2
AM_ISO02W050x2
 70
     0
  3
 _ _ _ _ _ _ _ _ _ _ _ _
 72
    65
 73
     2
 40
3.75
 49
3.0
 74
     0
 49
-0.75
 74
     0
  0
LTYPE
  5
94D
330
5
100
AcDbSymbolTableRecord
100
AcDbLinetypeTableRecord
  2
Amzigzag
 70
     0
  3
/\/-/\/-/\/-/\/-/\/-/\/
 72
    65
 73
     2
 40
11.0001
 49
0.0001
 74
     4
 75
   136
340
94C
 46
0.04
 50
0.0
 44
0.0
 45
0.0
 49
-11.0
 74
     0
  0
LTYPE
  5
951
330
5
100
AcDbSymbolTableRecord
100
AcDbLinetypeTableRecord
  2
ACISOWELD
 70
     0
  3
_ _ _ _ _
 72
    65
 73
     2
 40
2.0
 49
2.0
 74
     0
 49
-1.0
 74
     0
  0
LTYPE
  5
952
330
5
100
AcDbSymbolTableRecord
100
AcDbLinetypeTableRecord
  2
ACISOTGB
 70
     0
  3
__ . . __ . .
 72
    65
 73
     6
 40
9.0
 49
4.0
 74
     0
 49
-1.0
 74
     0
 49
1.0
 74
     0
 49
-1.0
 74
     0
 49
1.0
 74
     0
 49
-1.0
 74
     0
  0
LTYPE
  5
953
330
5
100
AcDbSymbolTableRecord
100
AcDbLinetypeTableRecord
  2
ACISOTGL
 70
     0
  3
_ _ _ _ _
 72
    65
 73
     2
 40
3.0
 49
2.0
 74
     0
 49
-1.0
 74
     0
  0
ENDTAB
  0
TABLE
  2
LAYER
  5
2
330
0
100
AcDbSymbolTable
 70
     7
  0
LAYER
  5
5F
330
2
100
AcDbSymbolTableRecord
100
AcDbLayerTableRecord
  2
0
 70
     0
 62
     7
  6
Continuous
370
    -3
390
F
  0
LAYER
  5
C1
330
2
100
AcDbSymbolTableRecord
100
AcDbLayerTableRecord
  2
Bordo_0
 70
     0
 62
   179
  6
Continuous
370
    50
390
F
  0
LAYER
  5
DF
330
2
100
AcDbSymbolTableRecord
100
AcDbLayerTableRecord
  2
Geometria schizzo(ISO)
 70
     0
 62
   179
  6
Continuous
370
    35
390
F
  0
LAYER
  5
165
330
2
100
AcDbSymbolTableRecord
100
AcDbLayerTableRecord
  2
Simboli(ISO)
 70
     0
 62
   179
  6
Continuous
370
    18
390
F
  0
LAYER
  5
17E
330
2
100
AcDbSymbolTableRecord
100
AcDbLayerTableRecord
  2
Spigoli tangenti visibili(ISO)
 70
     0
 62
   179
  6
Continuous
370
    35
390
F
  0
LAYER
  5
18A
330
2
100
AcDbSymbolTableRecord
100
AcDbLayerTableRecord
  2
Spigoli visibili(ISO)
 70
     0
 62
   179
  6
Continuous
370
    35
390
F
  0
LAYER
  5
18C
330
2
100
AcDbSymbolTableRecord
100
AcDbLayerTableRecord
  2
Tratteggio
 70
     0
 62
   179
  6
Continuous
370
     9
390
F
  0
ENDTAB
  0
TABLE
  2
STYLE
  5
3
330
0
100
AcDbSymbolTable
 70
    65
  0
STYLE
  5
60
330
3
100
AcDbSymbolTableRecord
100
AcDbTextStyleTableRecord
  2
Standard
 70
     0
 40
0.0
 41
1.0
 50
0.0
 71
     0
 42
0.2
  3
ARIAL.TTF
  4

1001
ACAD
1000
Arial
1071
      256
  0
STYLE
  5
65
330
3
100
AcDbSymbolTableRecord
100
AcDbTextStyleTableRecord
  2
Annotative
 70
     0
 40
0.0
 41
1.0
 50
0.0
 71
     0
 42
0.2
  3
txt
  4

1001
AcadAnnotative
1000
AnnotativeData
1002
{
1070
     1
1070
     1
1002
}
  0
STYLE
  5
B3
330
3
100
AcDbSymbolTableRecord
100
AcDbTextStyleTableRecord
  2

 70
     1
 40
0.0
 41
1.0
 50
0.0
 71
     0
 42
0.2
  3
ltypeshp.shx
  4

  0
STYLE
  5
18D
330
3
100
AcDbSymbolTableRecord
100
AcDbTextStyleTableRecord
  2
Bordo_1
 70
     0
 40
0.0
 41
1.0
 50
0.0
 71
     0
 42
0.2
  3
ARIAL.TTF
  4

1001
ACAD
1000
Arial
1071
      256
  0
STYLE
  5
18E
330
3
100
AcDbSymbolTableRecord
100
AcDbTextStyleTableRecord
  2
Corrente-ANSI
 70
     0
 40
0.0
 41
1.0
 50
0.0
 71
     0
 42
0.2
  3
ARIAL.TTF
  4

1001
ACAD
1000
Arial
1071
      256
  0
STYLE
  5
18F
330
3
100
AcDbSymbolTableRecord
100
AcDbTextStyleTableRecord
  2
Corrente-BSI
 70
     0
 40
0.0
 41
1.0
 50
0.0
 71
     0
 42
0.2
  3
ARIAL.TTF
  4

1001
ACAD
1000
Arial
1071
      256
  0
STYLE
  5
190
330
3
100
AcDbSymbolTableRecord
100
AcDbTextStyleTableRecord
  2
Corrente-DIN
 70
     0
 40
0.0
 41
1.0
 50
0.0
 71
     0
 42
0.2
  3
ARIAL.TTF
  4

1001
ACAD
1000
Arial
1071
      256
  0
STYLE
  5
191
330
3
100
AcDbSymbolTableRecord
100
AcDbTextStyleTableRecord
  2
Corrente-GB
 70
     0
 40
0.0
 41
1.0
 50
0.0
 71
     0
 42
0.2
  3
ARIAL.TTF
  4

1001
ACAD
1000
Arial
1071
      256
  0
STYLE
  5
192
330
3
100
AcDbSymbolTableRecord
100
AcDbTextStyleTableRecord
  2
Corrente-ISO
 70
     0
 40
0.0
 41
1.0
 50
0.0
 71
     0
 42
0.2
  3
ARIAL.TTF
  4

1001
ACAD
1000
Arial
1071
      256
  0
STYLE
  5
193
330
3
100
AcDbSymbolTableRecord
100
AcDbTextStyleTableRecord
  2
Corrente-JIS
 70
     0
 40
0.0
 41
1.0
 50
0.0
 71
     0
 42
0.2
  3
ARIAL.TTF
  4

1001
ACAD
1000
Arial
1071
      256
  0
STYLE
  5
194
330
3
100
AcDbSymbolTableRecord
100
AcDbTextStyleTableRecord
  2
DEFAULT-ANSI
 70
     0
 40
0.0
 41
1.0
 50
0.0
 71
     0
 42
0.2
  3
ARIAL.TTF
  4

1001
ACAD
1000
Arial
1071
      256
  0
STYLE
  5
195
330
3
100
AcDbSymbolTableRecord
100
AcDbTextStyleTableRecord
  2
DEFAULT-ANSI~0
 70
     0
 40
0.0
 41
1.0
 50
0.0
 71
     0
 42
0.2
  3
ARIAL.TTF
  4

1001
ACAD
1000
Arial
1071
      256
  0
STYLE
  5
196
330
3
100
AcDbSymbolTableRecord
100
AcDbTextStyleTableRecord
  2
DEFAULT-ANSIDa layer
 70
     0
 40
0.0
 41
1.0
 50
0.0
 71
     0
 42
0.2
  3
ARIAL.TTF
  4

1001
ACAD
1000
Arial
1071
      256
  0
STYLE
  5
197
330
3
100
AcDbSymbolTableRecord
100
AcDbTextStyleTableRecord
  2
DEFAULT-ANSITesto caratteri grandi
 70
     0
 40
0.0
 41
1.0
 50
0.0
 71
     0
 42
0.2
  3
ARIAL.TTF
  4

1001
ACAD
1000
Arial
1071
      256
  0
STYLE
  5
198
330
3
100
AcDbSymbolTableRecord
100
AcDbTextStyleTableRecord
  2
DEFAULT-BSI
 70
     0
 40
0.0
 41
1.0
 50
0.0
 71
     0
 42
0.2
  3
ARIAL.TTF
  4

1001
ACAD
1000
Arial
1071
      256
  0
STYLE
  5
199
330
3
100
AcDbSymbolTableRecord
100
AcDbTextStyleTableRecord
  2
DEFAULT-BSIDa layer
 70
     0
 40
0.0
 41
1.0
 50
0.0
 71
     0
 42
0.2
  3
ARIAL.TTF
  4

1001
ACAD
1000
Arial
1071
      256
  0
STYLE
  5
19A
330
3
100
AcDbSymbolTableRecord
100
AcDbTextStyleTableRecord
  2
DEFAULT-BSITesto caratteri grandi
 70
     0
 40
0.0
 41
1.0
 50
0.0
 71
     0
 42
0.2
  3
ARIAL.TTF
  4

1001
ACAD
1000
Arial
1071
      256
  0
STYLE
  5
19B
330
3
100
AcDbSymbolTableRecord
100
AcDbTextStyleTableRecord
  2
DEFAULT-DIN
 70
     0
 40
0.0
 41
1.0
 50
0.0
 71
     0
 42
0.2
  3
ARIAL.TTF
  4

1001
ACAD
1000
Arial
1071
      256
  0
STYLE
  5
19C
330
3
100
AcDbSymbolTableRecord
100
AcDbTextStyleTableRecord
  2
DEFAULT-DINDa layer
 70
     0
 40
0.0
 41
1.0
 50
0.0
 71
     0
 42
0.2
  3
ARIAL.TTF
  4

1001
ACAD
1000
Arial
1071
      256
  0
STYLE
  5
19D
330
3
100
AcDbSymbolTableRecord
100
AcDbTextStyleTableRecord
  2
DEFAULT-DINTesto caratteri grandi
 70
     0
 40
0.0
 41
1.0
 50
0.0
 71
     0
 42
0.2
  3
ARIAL.TTF
  4

1001
ACAD
1000
Arial
1071
      256
  0
STYLE
  5
19E
330
3
100
AcDbSymbolTableRecord
100
AcDbTextStyleTableRecord
  2
DEFAULT-GB
 70
     0
 40
0.0
 41
1.0
 50
0.0
 71
     0
 42
0.2
  3
ARIAL.TTF
  4

1001
ACAD
1000
Arial
1071
      256
  0
STYLE
  5
19F
330
3
100
AcDbSymbolTableRecord
100
AcDbTextStyleTableRecord
  2
DEFAULT-GBDa layer
 70
     0
 40
0.0
 41
1.0
 50
0.0
 71
     0
 42
0.2
  3
ARIAL.TTF
  4

1001
ACAD
1000
Arial
1071
      256
  0
STYLE
  5
1A0
330
3
100
AcDbSymbolTableRecord
100
AcDbTextStyleTableRecord
  2
DEFAULT-GBTesto caratteri grandi
 70
     0
 40
0.0
 41
1.0
 50
0.0
 71
     0
 42
0.2
  3
ARIAL.TTF
  4

1001
ACAD
1000
Arial
1071
      256
  0
STYLE
  5
1A1
330
3
100
AcDbSymbolTableRecord
100
AcDbTextStyleTableRecord
  2
DEFAULT-ISO
 70
     0
 40
0.0
 41
1.0
 50
0.0
 71
     0
 42
0.2
  3
ARIAL.TTF
  4

1001
ACAD
1000
Arial
1071
      256
  0
STYLE
  5
1A2
330
3
100
AcDbSymbolTableRecord
100
AcDbTextStyleTableRecord
  2
DEFAULT-ISO~0
 70
     0
 40
0.0
 41
1.0
 50
0.0
 71
     0
 42
0.2
  3
ARIAL.TTF
  4

1001
ACAD
1000
Arial
1071
      256
  0
STYLE
  5
1A3
330
3
100
AcDbSymbolTableRecord
100
AcDbTextStyleTableRecord
  2
DEFAULT-ISODa layer
 70
     0
 40
0.0
 41
1.0
 50
0.0
 71
     0
 42
0.2
  3
ARIAL.TTF
  4

1001
ACAD
1000
Arial
1071
      256
  0
STYLE
  5
1A4
330
3
100
AcDbSymbolTableRecord
100
AcDbTextStyleTableRecord
  2
DEFAULT-ISOTesto caratteri grandi
 70
     0
 40
0.0
 41
1.0
 50
0.0
 71
     0
 42
0.2
  3
ARIAL.TTF
  4

1001
ACAD
1000
Arial
1071
      256
  0
STYLE
  5
1A5
330
3
100
AcDbSymbolTableRecord
100
AcDbTextStyleTableRecord
  2
DEFAULT-JIS
 70
     0
 40
0.0
 41
1.0
 50
0.0
 71
     0
 42
0.2
  3
ARIAL.TTF
  4

1001
ACAD
1000
Arial
1071
      256
  0
STYLE
  5
1A6
330
3
100
AcDbSymbolTableRecord
100
AcDbTextStyleTableRecord
  2
DEFAULT-JIS~0
 70
     0
 40
0.0
 41
1.0
 50
0.0
 71
     0
 42
0.2
  3
ARIAL.TTF
  4

1001
ACAD
1000
Arial
1071
      256
  0
STYLE
  5
1A7
330
3
100
AcDbSymbolTableRecord
100
AcDbTextStyleTableRecord
  2
DEFAULT-JISDa layer
 70
     0
 40
0.0
 41
1.0
 50
0.0
 71
     0
 42
0.2
  3
ARIAL.TTF
  4

1001
ACAD
1000
Arial
1071
      256
  0
STYLE
  5
1A8
330
3
100
AcDbSymbolTableRecord
100
AcDbTextStyleTableRecord
  2
DEFAULT-JISTesto caratteri grandi
 70
     0
 40
0.0
 41
1.0
 50
0.0
 71
     0
 42
0.2
  3
ARIAL.TTF
  4

1001
ACAD
1000
Arial
1071
      256
  0
STYLE
  5
1A9
330
3
100
AcDbSymbolTableRecord
100
AcDbTextStyleTableRecord
  2
ISOCADMEC_1-1
 70
     0
 40
0.0
 41
1.064000010490417
 50
0.0
 71
     0
 42
0.2
  3
ARIAL.TTF
  4

1001
ACAD
1000
Arial
1071
      256
  0
STYLE
  5
1AA
330
3
100
AcDbSymbolTableRecord
100
AcDbTextStyleTableRecord
  2
MM-ANSI
 70
     0
 40
0.0
 41
1.0
 50
0.0
 71
     0
 42
0.2
  3
ARIAL.TTF
  4

1001
ACAD
1000
Arial
1071
      256
  0
STYLE
  5
1AB
330
3
100
AcDbSymbolTableRecord
100
AcDbTextStyleTableRecord
  2
STANDARDAM_ISO
 70
     0
 40
0.0
 41
1.064000010490417
 50
0.0
 71
     0
 42
0.2
  3
ISOCP.shx
  4

  0
STYLE
  5
1AC
330
3
100
AcDbSymbolTableRecord
100
AcDbTextStyleTableRecord
  2
STANDARDAM_ISO$3
 70
     0
 40
0.0
 41
1.064000010490417
 50
0.0
 71
     0
 42
0.2
  3
ISOCP.shx
  4

  0
STYLE
  5
1AD
330
3
100
AcDbSymbolTableRecord
100
AcDbTextStyleTableRecord
  2
STANDARDAM_ISO$4
 70
     0
 40
0.0
 41
1.064000010490417
 50
0.0
 71
     0
 42
0.2
  3
ISOCP.shx
  4

  0
STYLE
  5
1AE
330
3
100
AcDbSymbolTableRecord
100
AcDbTextStyleTableRecord
  2
STANDARDAM_ISO$6
 70
     0
 40
0.0
 41
1.064000010490417
 50
0.0
 71
     0
 42
0.2
  3
ISOCP.shx
  4

  0
STYLE
  5
1AF
330
3
100
AcDbSymbolTableRecord
100
AcDbTextStyleTableRecord
  2
STANDARDAM_ISO$7
 70
     0
 40
0.0
 41
1.064000010490417
 50
0.0
 71
     0
 42
0.2
  3
ISOCP.shx
  4

  0
STYLE
  5
1B0
330
3
100
AcDbSymbolTableRecord
100
AcDbTextStyleTableRecord
  2
STANDARDAM_ISO$SF
 70
     0
 40
0.0
 41
1.064000010490417
 50
0.0
 71
     0
 42
0.2
  3
ISOCP.shx
  4

  0
STYLE
  5
1B1
330
3
100
AcDbSymbolTableRecord
100
AcDbTextStyleTableRecord
  2
STANDARDAM_ISO$SH
 70
     0
 40
0.0
 41
1.064000010490417
 50
0.0
 71
     0
 42
0.2
  3
ISOCP.shx
  4

  0
STYLE
  5
1B2
330
3
100
AcDbSymbolTableRecord
100
AcDbTextStyleTableRecord
  2
STANDARDGEN-ISO
 70
     0
 40
0.0
 41
1.064000010490417
 50
0.0
 71
     0
 42
0.2
  3
ISOCP.shx
  4

  0
STYLE
  5
1B3
330
3
100
AcDbSymbolTableRecord
100
AcDbTextStyleTableRecord
  2
STANDARDGEN-ISO-AXE-F
 70
     0
 40
0.0
 41
1.064000010490417
 50
0.0
 71
     0
 42
0.2
  3
ISOCP.shx
  4

  0
STYLE
  5
1B4
330
3
100
AcDbSymbolTableRecord
100
AcDbTextStyleTableRecord
  2
STANDARDGEN-ISO-AXE-H
 70
     0
 40
0.0
 41
1.064000010490417
 50
0.0
 71
     0
 42
0.2
  3
ISOCP.shx
  4

  0
STYLE
  5
1B5
330
3
100
AcDbSymbolTableRecord
100
AcDbTextStyleTableRecord
  2
STANDARDGEN-ISO-POS
 70
     0
 40
0.0
 41
1.064000010490417
 50
0.0
 71
     0
 42
0.2
  3
ISOCP.shx
  4

  0
STYLE
  5
1B6
330
3
100
AcDbSymbolTableRecord
100
AcDbTextStyleTableRecord
  2
STANDARDGEN-ISO$3
 70
     0
 40
0.0
 41
1.064000010490417
 50
0.0
 71
     0
 42
0.2
  3
ISOCP.shx
  4

  0
STYLE
  5
1B7
330
3
100
AcDbSymbolTableRecord
100
AcDbTextStyleTableRecord
  2
STANDARDGEN-ISO$4
 70
     0
 40
0.0
 41
1.064000010490417
 50
0.0
 71
     0
 42
0.2
  3
ISOCP.shx
  4

  0
STYLE
  5
1B8
330
3
100
AcDbSymbolTableRecord
100
AcDbTextStyleTableRecord
  2
STANDARDGEN-ISO$6
 70
     0
 40
0.0
 41
1.064000010490417
 50
0.0
 71
     0
 42
0.2
  3
ISOCP.shx
  4

  0
STYLE
  5
1B9
330
3
100
AcDbSymbolTableRecord
100
AcDbTextStyleTableRecord
  2
STANDARDISO-25
 70
     0
 40
0.0
 41
1.064000010490417
 50
0.0
 71
     0
 42
0.2
  3
ISOCP.shx
  4

  0
STYLE
  5
1BA
330
3
100
AcDbSymbolTableRecord
100
AcDbTextStyleTableRecord
  2
STANDARDISO-35
 70
     0
 40
0.0
 41
1.064000010490417
 50
0.0
 71
     0
 42
0.2
  3
ISOCP.shx
  4

  0
STYLE
  5
1BB
330
3
100
AcDbSymbolTableRecord
100
AcDbTextStyleTableRecord
  2
STANDARDISO-5
 70
     0
 40
0.0
 41
1.064000010490417
 50
0.0
 71
     0
 42
0.2
  3
ISOCP.shx
  4

  0
STYLE
  5
1BC
330
3
100
AcDbSymbolTableRecord
100
AcDbTextStyleTableRecord
  2
STANDARDISO-7
 70
     0
 40
0.0
 41
1.064000010490417
 50
0.0
 71
     0
 42
0.2
  3
ISOCP.shx
  4

  0
STYLE
  5
1BD
330
3
100
AcDbSymbolTableRecord
100
AcDbTextStyleTableRecord
  2
STANDARDISO1
 70
     0
 40
0.0
 41
1.064000010490417
 50
0.0
 71
     0
 42
0.2
  3
ISOCP.shx
  4

  0
STYLE
  5
1BE
330
3
100
AcDbSymbolTableRecord
100
AcDbTextStyleTableRecord
  2
STANDARDISO1-4
 70
     0
 40
0.0
 41
1.064000010490417
 50
0.0
 71
     0
 42
0.2
  3
ISOCP.shx
  4

  0
STYLE
  5
1BF
330
3
100
AcDbSymbolTableRecord
100
AcDbTextStyleTableRecord
  2
STANDARDISO2
 70
     0
 40
0.0
 41
1.064000010490417
 50
0.0
 71
     0
 42
0.2
  3
ISOCP.shx
  4

  0
STYLE
  5
1C0
330
3
100
AcDbSymbolTableRecord
100
AcDbTextStyleTableRecord
  2
STANDARDSTANDARD
 70
     0
 40
0.0
 41
1.064000010490417
 50
0.0
 71
     0
 42
0.2
  3
ISOCP.shx
  4

  0
STYLE
  5
1C1
330
3
100
AcDbSymbolTableRecord
100
AcDbTextStyleTableRecord
  2
X . XXX
 70
     0
 40
0.0
 41
1.0
 50
0.0
 71
     0
 42
0.2
  3
ARIAL.TTF
  4

1001
ACAD
1000
Arial
1071
      256
  0
STYLE
  5
1C2
330
3
100
AcDbSymbolTableRecord
100
AcDbTextStyleTableRecord
  2
X.X spazio grande e testo
 70
     0
 40
0.0
 41
1.0
 50
0.0
 71
     0
 42
0.2
  3
ARIAL.TTF
  4

1001
ACAD
1000
Arial
1071
      256
  0
STYLE
  5
27E
330
3
100
AcDbSymbolTableRecord
100
AcDbTextStyleTableRecord
  2
Stile testo15
 70
     0
 40
0.0
 41
1.0
 50
0.0
 71
     0
 42
0.2
  3
ARIAL.TTF
  4

1001
ACAD
1000
Arial
1071
      256
  0
STYLE
  5
283
330
3
100
AcDbSymbolTableRecord
100
AcDbTextStyleTableRecord
  2
Stile testo116
 70
     0
 40
0.0
 41
0.899999976158142
 50
0.0
 71
     0
 42
0.2
  3
ARIAL.TTF
  4

1001
ACAD
1000
Arial
1071
      256
  0
STYLE
  5
285
330
3
100
AcDbSymbolTableRecord
100
AcDbTextStyleTableRecord
  2
Stile testo115
 70
     0
 40
0.0
 41
0.899999976158142
 50
0.0
 71
     0
 42
0.2
  3
ARIAL.TTF
  4

1001
ACAD
1000
Arial
1071
      256
  0
STYLE
  5
5AC
330
3
100
AcDbSymbolTableRecord
100
AcDbTextStyleTableRecord
  2
Stile testo6
 70
     0
 40
0.0
 41
1.0
 50
0.0
 71
     0
 42
0.2
  3
ARIAL.TTF
  4

1001
ACAD
1000
Arial
1071
      256
  0
STYLE
  5
5AF
330
3
100
AcDbSymbolTableRecord
100
AcDbTextStyleTableRecord
  2
Stile testo135
 70
     0
 40
0.0
 41
0.75
 50
0.0
 71
     0
 42
0.2
  3

  4

1001
ACAD
1000
Arial Black
1071
      256
  0
STYLE
  5
94C
330
3
100
AcDbSymbolTableRecord
100
AcDbTextStyleTableRecord
  2

 70
     1
 40
0.0
 41
1.0
 50
0.0
 71
     0
 42
0.2
  3
genltshp.shx
  4

  0
STYLE
  5
94F
330
3
100
AcDbSymbolTableRecord
100
AcDbTextStyleTableRecord
  2
ACISOTS
 70
     0
 40
1.0
 41
1.0
 50
0.0
 71
     0
 42
0.2
  3
isocp.shx
  4

  0
STYLE
  5
950
330
3
100
AcDbSymbolTableRecord
100
AcDbTextStyleTableRecord
  2
ACISOGDT
 70
     0
 40
0.0
 41
1.0
 50
0.0
 71
     0
 42
0.2
  3
amgdt.shx
  4

  0
ENDTAB
  0
TABLE
  2
VIEW
  5
6
330
0
100
AcDbSymbolTable
 70
     0
  0
ENDTAB
  0
TABLE
  2
UCS
  5
7
330
0
100
AcDbSymbolTable
 70
     0
  0
ENDTAB
  0
TABLE
  2
APPID
  5
9
330
0
100
AcDbSymbolTable
 70
    13
  0
APPID
  5
61
330
9
100
AcDbSymbolTableRecord
100
AcDbRegAppTableRecord
  2
ACAD
 70
     0
  0
APPID
  5
69
330
9
100
AcDbSymbolTableRecord
100
AcDbRegAppTableRecord
  2
AcadAnnotative
 70
     0
  0
APPID
  5
281
330
9
100
AcDbSymbolTableRecord
100
AcDbRegAppTableRecord
  2
AcadAnnoPO
 70
     0
  0
APPID
  5
89C
330
9
100
AcDbSymbolTableRecord
100
AcDbRegAppTableRecord
  2
ACAD_MLEADERVER
 70
     0
  0
APPID
  5
8D1
330
9
100
AcDbSymbolTableRecord
100
AcDbRegAppTableRecord
  2
MCAD_NO_VIS
 70
     0
  0
APPID
  5
8D2
330
9
100
AcDbSymbolTableRecord
100
AcDbRegAppTableRecord
  2
ACAD_TEMP_GRAPHIC
 70
     0
  0
APPID
  5
8FF
330
9
100
AcDbSymbolTableRecord
100
AcDbRegAppTableRecord
  2
AD_DRAW
 70
     0
  0
APPID
  5
902
330
9
100
AcDbSymbolTableRecord
100
AcDbRegAppTableRecord
  2
ACATTRIBSERVICES
 70
     0
  0
APPID
  5
922
330
9
100
AcDbSymbolTableRecord
100
AcDbRegAppTableRecord
  2
DESIGNERASSEMBLIES
 70
     0
  0
APPID
  5
928
330
9
100
AcDbSymbolTableRecord
100
AcDbRegAppTableRecord
  2
ACADM_DIM_EDIT
 70
     0
  0
APPID
  5
929
330
9
100
AcDbSymbolTableRecord
100
AcDbRegAppTableRecord
  2
AMDT_DM_ADJ
 70
     0
  0
APPID
  5
941
330
9
100
AcDbSymbolTableRecord
100
AcDbRegAppTableRecord
  2
ACAD_DSTYLE_DIMBREAK
 70
     0
  0
APPID
  5
942
330
9
100
AcDbSymbolTableRecord
100
AcDbRegAppTableRecord
  2
ACAD_DSTYLE_DIMJAG
 70
     0
  0
ENDTAB
  0
TABLE
  2
DIMSTYLE
  5
A
330
0
100
AcDbSymbolTable
 70
   100
100
AcDbDimStyleTable
 71
     0
  0
DIMSTYLE
105
63
330
A
100
AcDbSymbolTableRecord
100
AcDbDimStyleTableRecord
  2
Standard
 70
     0
 40
2.0
 41
2.5
340
60
342
1F0
  0
DIMSTYLE
105
64
330
A
100
AcDbSymbolTableRecord
100
AcDbDimStyleTableRecord
  2
Annotative
 70
     0
340
60
1001
AcadAnnotative
1000
AnnotativeData
1002
{
1070
     1
1070
     1
1002
}
  0
DIMSTYLE
105
1C3
330
A
100
AcDbSymbolTableRecord
100
AcDbDimStyleTableRecord
  2
BSI - Metodo 2
 70
     0
 40
2.0
 41
2.5
 42
0.5
 43
5.999999999999999
 44
2.999999999999999
 45
0.00000001
 46
10.0
 73
     0
 77
     1
 78
     8
 79
     2
140
3.5
143
0.03937
147
0.75
171
     3
172
     1
176
   250
177
   250
178
   250
179
     2
271
     2
272
     2
274
     3
278
    44
285
     8
340
1A2
371
    25
372
    25
  0
DIMSTYLE
105
1C4
330
A
100
AcDbSymbolTableRecord
100
AcDbDimStyleTableRecord
  2
BSI - Metodo 2$7
 70
     0
 40
2.0
 41
2.5
 42
0.5
 43
5.999999999999999
 44
2.999999999999999
 45
0.00000001
 46
10.0
 73
     0
 77
     1
 78
     8
 79
     2
140
3.5
143
0.03937
147
0.75
171
     3
172
     1
176
   179
177
   250
178
   250
179
     2
271
     2
272
     2
274
     3
278
    44
285
     8
340
1A2
371
    25
372
    25
  0
DIMSTYLE
105
1C5
330
A
100
AcDbSymbolTableRecord
100
AcDbDimStyleTableRecord
  2
BSI - Metodo 2Testo caratteri grandi
 70
     0
 40
2.0
 41
5.0
 42
0.5
 43
5.999999999999999
 44
2.999999999999999
 45
0.00000001
 46
10.0
 73
     0
 77
     1
 78
     8
 79
     2
140
5.25
143
0.03937
146
0.6666666666666666
147
0.75
171
     3
172
     1
176
   250
177
   250
178
   179
179
     2
271
     2
272
     2
274
     3
278
    44
285
     8
340
19A
371
    25
372
    25
  0
DIMSTYLE
105
1C6
330
A
100
AcDbSymbolTableRecord
100
AcDbDimStyleTableRecord
  2
BSI - Metodo 2Testo caratteri grandi$7
 70
     0
 40
2.0
 41
5.0
 42
0.5
 43
5.999999999999999
 44
2.999999999999999
 45
0.00000001
 46
10.0
 73
     0
 77
     1
 78
     8
 79
     2
140
5.25
143
0.03937
146
0.6666666666666666
147
0.75
171
     3
172
     1
176
   179
177
   250
178
   179
179
     2
271
     2
272
     2
274
     3
278
    44
285
     8
340
19A
371
    25
372
    25
  0
DIMSTYLE
105
1D5
330
A
100
AcDbSymbolTableRecord
100
AcDbDimStyleTableRecord
  2
DEFAULT-GB
 70
     0
 40
2.0
 41
4.0
 42
0.0
 43
5.999999999999999
 44
5.0
 45
0.00000001
 46
10.0
 73
     0
 74
     0
 77
     1
 78
     8
 79
     2
140
3.5
143
0.03937
147
0.75
171
     3
172
     1
176
   250
177
   250
178
   250
179
     3
271
     2
272
     2
274
     3
275
     1
285
     8
340
1A2
341
1C7
342
1C7
371
    25
372
    25
  0
DIMSTYLE
105
1D6
330
A
100
AcDbSymbolTableRecord
100
AcDbDimStyleTableRecord
  2
DEFAULT-GB$7
 70
     0
 40
2.0
 41
4.0
 42
0.0
 43
5.999999999999999
 44
5.0
 45
0.00000001
 46
10.0
 73
     0
 74
     0
 77
     1
 78
     8
 79
     2
140
3.5
143
0.03937
147
0.75
171
     3
172
     1
176
   179
177
   250
178
   250
179
     3
271
     2
272
     2
274
     3
275
     1
285
     8
340
1A2
341
1C7
342
1C7
371
    25
372
    25
  0
DIMSTYLE
105
1D7
330
A
100
AcDbSymbolTableRecord
100
AcDbDimStyleTableRecord
  2
DEFAULT-GBTesto caratteri grandi
 70
     0
 40
2.0
 41
8.0
 42
0.0
 43
5.999999999999999
 44
5.0
 45
0.00000001
 46
10.0
 73
     0
 74
     0
 77
     1
 78
     8
 79
     2
140
5.25
143
0.03937
146
0.6666666666666666
147
0.75
171
     3
172
     1
176
   250
177
   250
178
   179
179
     3
271
     2
272
     2
274
     3
275
     1
285
     8
340
1A0
341
1C7
342
1C7
371
    25
372
    25
  0
DIMSTYLE
105
1D8
330
A
100
AcDbSymbolTableRecord
100
AcDbDimStyleTableRecord
  2
DEFAULT-GBTesto caratteri grandi$7
 70
     0
 40
2.0
 41
8.0
 42
0.0
 43
5.999999999999999
 44
5.0
 45
0.00000001
 46
10.0
 73
     0
 74
     0
 77
     1
 78
     8
 79
     2
140
5.25
143
0.03937
146
0.6666666666666666
147
0.75
171
     3
172
     1
176
   179
177
   250
178
   179
179
     3
271
     2
272
     2
274
     3
275
     1
285
     8
340
1A0
341
1C7
342
1C7
371
    25
372
    25
  0
DIMSTYLE
105
1D9
330
A
100
AcDbSymbolTableRecord
100
AcDbDimStyleTableRecord
  2
DEFAULT-JIS - Metodo 2
 70
     0
 40
2.0
 41
2.5
 42
0.0
 43
5.999999999999999
 44
3.174999999999999
 45
0.00000001
 46
10.0
 77
     1
140
4.5
143
0.03937
147
0.8
171
     3
172
     1
176
   250
177
   250
178
   250
271
     2
272
     2
274
     3
340
1A6
341
1DA
342
1DA
371
    25
372
    25
  0
DIMSTYLE
105
1E0
330
A
100
AcDbSymbolTableRecord
100
AcDbDimStyleTableRecord
  2
DEFAULT-JIS - Metodo 2$7
 70
     0
 40
2.0
 41
2.5
 42
0.0
 43
5.999999999999999
 44
3.174999999999999
 45
0.00000001
 46
10.0
 77
     1
140
4.5
143
0.03937
147
0.8
171
     3
172
     1
176
   179
177
   250
178
   250
271
     2
272
     2
274
     3
340
1A6
341
1DA
342
1DA
371
    25
372
    25
  0
DIMSTYLE
105
1E1
330
A
100
AcDbSymbolTableRecord
100
AcDbDimStyleTableRecord
  2
DEFAULT-JIS - Metodo 2Testo caratteri grandi
 70
     0
 40
2.0
 41
5.0
 42
0.0
 43
5.999999999999999
 44
3.174999999999999
 45
0.00000001
 46
10.0
 77
     1
140
6.749999523162841
143
0.03937
146
0.666666713761698
147
0.8
171
     3
172
     1
176
   250
177
   250
178
   179
271
     2
272
     2
274
     3
340
1A8
341
1DA
342
1DA
371
    25
372
    25
  0
DIMSTYLE
105
1E2
330
A
100
AcDbSymbolTableRecord
100
AcDbDimStyleTableRecord
  2
DEFAULT-JIS - Metodo 2Testo caratteri grandi$7
 70
     0
 40
2.0
 41
5.0
 42
0.0
 43
5.999999999999999
 44
3.174999999999999
 45
0.00000001
 46
10.0
 77
     1
140
6.749999523162841
143
0.03937
146
0.666666713761698
147
0.8
171
     3
172
     1
176
   179
177
   250
178
   179
271
     2
272
     2
274
     3
340
1A8
341
1DA
342
1DA
371
    25
372
    25
  0
DIMSTYLE
105
1E3
330
A
100
AcDbSymbolTableRecord
100
AcDbDimStyleTableRecord
  2
DIN - Altro
 70
     0
 40
2.0
 41
2.5
 42
0.0
 43
5.999999999999999
 44
3.174999999999999
 45
0.00000001
 46
10.0
 77
     1
140
3.5
143
0.03937
147
0.8
171
     3
172
     1
176
   250
177
   250
178
   250
271
     2
272
     2
274
     3
278
    44
340
1A2
371
    25
372
    25
  0
DIMSTYLE
105
1E4
330
A
100
AcDbSymbolTableRecord
100
AcDbDimStyleTableRecord
  2
DIN - Altro$7
 70
     0
 40
2.0
 41
2.5
 42
0.0
 43
5.999999999999999
 44
3.174999999999999
 45
0.00000001
 46
10.0
 77
     1
140
3.5
143
0.03937
147
0.8
171
     3
172
     1
176
   179
177
   250
178
   250
271
     2
272
     2
274
     3
278
    44
340
1A2
371
    25
372
    25
  0
DIMSTYLE
105
1E5
330
A
100
AcDbSymbolTableRecord
100
AcDbDimStyleTableRecord
  2
DIN - AltroTesto caratteri grandi
 70
     0
 40
2.0
 41
5.0
 42
0.0
 43
5.999999999999999
 44
3.174999999999999
 45
0.00000001
 46
10.0
 77
     1
140
5.25
143
0.03937
146
0.6666666666666666
147
0.8
171
     3
172
     1
176
   250
177
   250
178
   179
271
     2
272
     2
274
     3
278
    44
340
19D
371
    25
372
    25
  0
DIMSTYLE
105
1E6
330
A
100
AcDbSymbolTableRecord
100
AcDbDimStyleTableRecord
  2
DIN - AltroTesto caratteri grandi$7
 70
     0
 40
2.0
 41
5.0
 42
0.0
 43
5.999999999999999
 44
3.174999999999999
 45
0.00000001
 46
10.0
 77
     1
140
5.25
143
0.03937
146
0.6666666666666666
147
0.8
171
     3
172
     1
176
   179
177
   250
178
   179
271
     2
272
     2
274
     3
278
    44
340
19D
371
    25
372
    25
  0
DIMSTYLE
105
1E7
330
A
100
AcDbSymbolTableRecord
100
AcDbDimStyleTableRecord
  2
MAURO
 70
     0
 40
2.0
 41
2.5
 42
1.0
 43
10.0
 44
1.0
 45
0.00000001
 46
10.0
 73
     0
 77
     1
 78
     8
 79
     2
140
3.5
143
0.03937
146
0.7142857142857144
147
0.762
171
     3
172
     1
176
    96
177
    96
178
     7
179
     3
271
     3
272
     3
274
     3
284
     8
286
     8
340
192
371
    25
372
    25
  0
DIMSTYLE
105
1E8
330
A
100
AcDbSymbolTableRecord
100
AcDbDimStyleTableRecord
  2
MAURO$7
 70
     0
 40
2.0
 41
2.5
 42
1.0
 43
10.0
 44
1.0
 45
0.00000001
 46
10.0
 73
     0
 77
     1
 78
     8
 79
     2
140
3.5
143
0.03937
146
0.7142857142857144
147
0.762
171
     3
172
     1
176
   179
177
    96
178
     7
179
     3
271
     3
272
     3
274
     3
284
     8
286
     8
340
192
371
    15
372
    25
  0
DIMSTYLE
105
1E9
330
A
100
AcDbSymbolTableRecord
100
AcDbDimStyleTableRecord
  2
MAUROTesto caratteri grandi
 70
     0
 40
2.0
 41
5.0
 42
1.0
 43
10.0
 44
1.0
 45
0.00000001
 46
10.0
 73
     0
 77
     1
 78
     8
 79
     2
140
5.25
143
0.03937
146
0.4761904761904762
147
0.762
171
     3
172
     1
176
    96
177
    96
178
   179
179
     3
271
     3
272
     3
274
     3
284
     8
286
     8
340
1A4
371
    25
372
    25
  0
DIMSTYLE
105
1EA
330
A
100
AcDbSymbolTableRecord
100
AcDbDimStyleTableRecord
  2
MAUROTesto caratteri grandi$7
 70
     0
 40
2.0
 41
5.0
 42
1.0
 43
10.0
 44
1.0
 45
0.00000001
 46
10.0
 73
     0
 77
     1
 78
     8
 79
     2
140
5.25
143
0.03937
146
0.4761904761904762
147
0.762
171
     3
172
     1
176
   179
177
    96
178
   179
179
     3
271
     3
272
     3
274
     3
284
     8
286
     8
340
1A4
371
    15
372
    25
  0
DIMSTYLE
105
1EB
330
A
100
AcDbSymbolTableRecord
100
AcDbDimStyleTableRecord
  2
X.XX pollici [mm]
 70
     0
  4
 mm
 40
2.0
 41
2.5
 42
2.387599999999999
 43
6.349999999999999
 44
3.174999999999999
 45
0.00000001
 46
10.0
 73
     0
140
3.04800009727478
144
0.0393700787401575
147
1.600199999999999
170
     1
176
     7
177
     7
178
     7
179
     1
271
     3
272
     2
340
1C1
371
    25
372
    25
  0
DIMSTYLE
105
1EC
330
A
100
AcDbSymbolTableRecord
100
AcDbDimStyleTableRecord
  2
X.XX pollici [mm]$7
 70
     0
  4
 mm
 40
2.0
 41
2.5
 42
2.387599999999999
 43
6.349999999999999
 44
3.174999999999999
 45
0.00000001
 46
10.0
 73
     0
140
3.04800009727478
144
0.0393700787401575
147
1.600199999999999
170
     1
176
   179
177
     7
178
     7
179
     1
271
     3
272
     2
340
1C1
371
    25
372
    25
  0
DIMSTYLE
105
1ED
330
A
100
AcDbSymbolTableRecord
100
AcDbDimStyleTableRecord
  2
X.XX pollici [mm]Testo caratteri grandi
 70
     0
  4
 mm
 40
2.0
 41
5.0
 42
2.387599999999999
 43
6.349999999999999
 44
3.174999999999999
 45
0.00000001
 46
10.0
 73
     0
140
4.57200002670288
144
0.0393700787401575
146
0.6666666840491819
147
1.600199999999999
170
     1
176
     7
177
     7
178
   179
179
     1
271
     3
272
     2
340
197
371
    25
372
    25
  0
DIMSTYLE
105
1EE
330
A
100
AcDbSymbolTableRecord
100
AcDbDimStyleTableRecord
  2
X.XX pollici [mm]Testo caratteri grandi$7
 70
     0
  4
 mm
 40
2.0
 41
5.0
 42
2.387599999999999
 43
6.349999999999999
 44
3.174999999999999
 45
0.00000001
 46
10.0
 73
     0
140
4.57200002670288
144
0.0393700787401575
146
0.6666666840491819
147
1.600199999999999
170
     1
176
   179
177
     7
178
   179
179
     1
271
     3
272
     2
340
197
371
    25
372
    25
  0
DIMSTYLE
105
1EF
330
A
100
AcDbSymbolTableRecord
100
AcDbDimStyleTableRecord
  2
1_32 FRAZIONE
 70
     0
 40
2.0
 41
2.5
340
60
342
1F0
  0
DIMSTYLE
105
1F7
330
A
100
AcDbSymbolTableRecord
100
AcDbDimStyleTableRecord
  2
1_64 FRAZIONE
 70
     0
 40
2.0
 41
2.5
340
60
342
1F0
  0
DIMSTYLE
105
1F8
102
{ACAD_REACTORS
330
930
102
}
330
A
100
AcDbSymbolTableRecord
100
AcDbDimStyleTableRecord
  2
AM_ISO
 70
     0
 40
2.0
 41
2.5
340
60
342
1F0
  0
DIMSTYLE
105
1F9
330
A
100
AcDbSymbolTableRecord
100
AcDbDimStyleTableRecord
  2
AM_ISO$3
 70
     0
 40
2.0
 41
2.5
340
60
342
1F0
  0
DIMSTYLE
105
1FA
330
A
100
AcDbSymbolTableRecord
100
AcDbDimStyleTableRecord
  2
AM_ISO$4
 70
     0
 40
2.0
 41
2.5
340
60
342
1F0
  0
DIMSTYLE
105
1FB
330
A
100
AcDbSymbolTableRecord
100
AcDbDimStyleTableRecord
  2
AM_ISO$6
 70
     0
 40
2.0
 41
2.5
340
60
342
1F0
  0
DIMSTYLE
105
1FC
330
A
100
AcDbSymbolTableRecord
100
AcDbDimStyleTableRecord
  2
AM_ISO$7
 70
     0
 40
2.0
 41
2.5
340
60
342
1F0
  0
DIMSTYLE
105
1FD
330
A
100
AcDbSymbolTableRecord
100
AcDbDimStyleTableRecord
  2
AM_ISO$SF
 70
     0
 40
2.0
 41
2.5
340
60
342
1F0
  0
DIMSTYLE
105
1FE
330
A
100
AcDbSymbolTableRecord
100
AcDbDimStyleTableRecord
  2
AM_ISO$SH
 70
     0
 40
2.0
 41
2.5
340
60
342
1F0
  0
DIMSTYLE
105
1FF
330
A
100
AcDbSymbolTableRecord
100
AcDbDimStyleTableRecord
  2
ANSI ALLINEATI
 70
     0
 40
2.0
 41
2.5
340
60
342
1F0
  0
DIMSTYLE
105
200
330
A
100
AcDbSymbolTableRecord
100
AcDbDimStyleTableRecord
  2
ANSI FRAZIONE - ALLINEATI
 70
     0
 40
2.0
 41
2.5
340
60
342
1F0
  0
DIMSTYLE
105
201
330
A
100
AcDbSymbolTableRecord
100
AcDbDimStyleTableRecord
  2
CADMEC_1-1
 70
     0
 40
2.0
 41
2.5
340
60
342
1F0
  0
DIMSTYLE
105
202
330
A
100
AcDbSymbolTableRecord
100
AcDbDimStyleTableRecord
  2
DEFAULT-ANSI
 70
     0
 40
2.0
 41
2.5
340
60
342
1F0
  0
DIMSTYLE
105
203
330
A
100
AcDbSymbolTableRecord
100
AcDbDimStyleTableRecord
  2
DEFAULT-ANSI FRAZIONE
 70
     0
 40
2.0
 41
2.5
340
60
342
1F0
  0
DIMSTYLE
105
204
330
A
100
AcDbSymbolTableRecord
100
AcDbDimStyleTableRecord
  2
DEFAULT-BSI
 70
     0
 40
2.0
 41
2.5
340
60
342
1F0
  0
DIMSTYLE
105
205
330
A
100
AcDbSymbolTableRecord
100
AcDbDimStyleTableRecord
  2
DEFAULT-DIN
 70
     0
 40
2.0
 41
2.5
340
60
342
1F0
  0
DIMSTYLE
105
206
330
A
100
AcDbSymbolTableRecord
100
AcDbDimStyleTableRecord
  2
DEFAULT-DIN - Metodo 2a
 70
     0
 40
2.0
 41
2.5
340
60
342
1F0
  0
DIMSTYLE
105
207
330
A
100
AcDbSymbolTableRecord
100
AcDbDimStyleTableRecord
  2
DEFAULT-DIN - Metodo 2b
 70
     0
 40
2.0
 41
2.5
340
60
342
1F0
  0
DIMSTYLE
105
208
330
A
100
AcDbSymbolTableRecord
100
AcDbDimStyleTableRecord
  2
DEFAULT-ISO
 70
     0
 40
2.0
 41
2.5
340
60
342
1F0
  0
DIMSTYLE
105
209
330
A
100
AcDbSymbolTableRecord
100
AcDbDimStyleTableRecord
  2
DEFAULT-ISO-Metodo 1b
 70
     0
 40
2.0
 41
2.5
340
60
342
1F0
  0
DIMSTYLE
105
20A
330
A
100
AcDbSymbolTableRecord
100
AcDbDimStyleTableRecord
  2
DEFAULT-ISO-Metodo 2a
 70
     0
 40
2.0
 41
2.5
340
60
342
1F0
  0
DIMSTYLE
105
20B
330
A
100
AcDbSymbolTableRecord
100
AcDbDimStyleTableRecord
  2
DEFAULT-ISO-Metodo 2b
 70
     0
 40
2.0
 41
2.5
340
60
342
1F0
  0
DIMSTYLE
105
20C
330
A
100
AcDbSymbolTableRecord
100
AcDbDimStyleTableRecord
  2
DEFAULT-JIS
 70
     0
 40
2.0
 41
2.5
340
60
342
1F0
  0
DIMSTYLE
105
20D
330
A
100
AcDbSymbolTableRecord
100
AcDbDimStyleTableRecord
  2
DEFAULT-JIS - Metodo 1b
 70
     0
 40
2.0
 41
2.5
340
60
342
1F0
  0
DIMSTYLE
105
20E
330
A
100
AcDbSymbolTableRecord
100
AcDbDimStyleTableRecord
  2
Direttrice-Indicatore origine(ANSI)
 70
     0
 40
2.0
 41
2.5
340
60
342
1F0
  0
DIMSTYLE
105
20F
330
A
100
AcDbSymbolTableRecord
100
AcDbDimStyleTableRecord
  2
Direttrice-Indicatore origine(BSI)
 70
     0
 40
2.0
 41
2.5
340
60
342
1F0
  0
DIMSTYLE
105
210
330
A
100
AcDbSymbolTableRecord
100
AcDbDimStyleTableRecord
  2
Direttrice-Indicatore origine(DIN)
 70
     0
 40
2.0
 41
2.5
340
60
342
1F0
  0
DIMSTYLE
105
211
330
A
100
AcDbSymbolTableRecord
100
AcDbDimStyleTableRecord
  2
Direttrice-Indicatore origine(GB)
 70
     0
 40
2.0
 41
4.0
340
60
342
1F0
  0
DIMSTYLE
105
212
330
A
100
AcDbSymbolTableRecord
100
AcDbDimStyleTableRecord
  2
Direttrice-Indicatore origine(ISO)
 70
     0
 40
2.0
 41
2.5
340
60
342
1F0
  0
DIMSTYLE
105
213
330
A
100
AcDbSymbolTableRecord
100
AcDbDimStyleTableRecord
  2
Direttrice-Indicatore origine(JIS)
 70
     0
 40
2.0
 41
2.5
340
60
342
1F0
  0
DIMSTYLE
105
214
330
A
100
AcDbSymbolTableRecord
100
AcDbDimStyleTableRecord
  2
Direttrice-punto(ANSI)
 70
     0
 40
2.0
 41
2.5
340
60
342
1F0
  0
DIMSTYLE
105
215
330
A
100
AcDbSymbolTableRecord
100
AcDbDimStyleTableRecord
  2
Direttrice-punto(BSI)
 70
     0
 40
2.0
 41
2.5
340
60
342
1F0
  0
DIMSTYLE
105
216
330
A
100
AcDbSymbolTableRecord
100
AcDbDimStyleTableRecord
  2
Direttrice-punto(DIN)
 70
     0
 40
2.0
 41
2.5
340
60
342
1F0
  0
DIMSTYLE
105
217
330
A
100
AcDbSymbolTableRecord
100
AcDbDimStyleTableRecord
  2
Direttrice-punto(GB)
 70
     0
 40
2.0
 41
4.0
340
60
342
1F0
  0
DIMSTYLE
105
218
330
A
100
AcDbSymbolTableRecord
100
AcDbDimStyleTableRecord
  2
Direttrice-punto(ISO)
 70
     0
 40
2.0
 41
2.5
340
60
342
1F0
  0
DIMSTYLE
105
219
330
A
100
AcDbSymbolTableRecord
100
AcDbDimStyleTableRecord
  2
Direttrice-punto(JIS)
 70
     0
 40
2.0
 41
2.5
340
60
342
1F0
  0
DIMSTYLE
105
224
330
A
100
AcDbSymbolTableRecord
100
AcDbDimStyleTableRecord
  2
Direttrice-riferimento(ANSI)
 70
     0
 40
2.0
 41
2.5
340
60
342
1F0
  0
DIMSTYLE
105
225
330
A
100
AcDbSymbolTableRecord
100
AcDbDimStyleTableRecord
  2
Direttrice-riferimento(BSI)
 70
     0
 40
2.0
 41
2.5
340
60
342
1F0
  0
DIMSTYLE
105
226
330
A
100
AcDbSymbolTableRecord
100
AcDbDimStyleTableRecord
  2
Direttrice-riferimento(DIN)
 70
     0
 40
2.0
 41
2.5
340
60
342
1F0
  0
DIMSTYLE
105
248
330
A
100
AcDbSymbolTableRecord
100
AcDbDimStyleTableRecord
  2
Direttrice-riferimento(GB)
 70
     0
 40
2.0
 41
4.0
340
60
342
1F0
  0
DIMSTYLE
105
249
330
A
100
AcDbSymbolTableRecord
100
AcDbDimStyleTableRecord
  2
Direttrice-riferimento(ISO)
 70
     0
 40
2.0
 41
2.5
340
60
342
1F0
  0
DIMSTYLE
105
24A
330
A
100
AcDbSymbolTableRecord
100
AcDbDimStyleTableRecord
  2
Direttrice-riferimento(JIS)
 70
     0
 40
2.0
 41
2.5
340
60
342
1F0
  0
DIMSTYLE
105
24B
330
A
100
AcDbSymbolTableRecord
100
AcDbDimStyleTableRecord
  2
Direttrice(ANSI)
 70
     0
 40
2.0
 41
2.5
340
60
342
1F0
  0
DIMSTYLE
105
24C
330
A
100
AcDbSymbolTableRecord
100
AcDbDimStyleTableRecord
  2
Direttrice(BSI)
 70
     0
 40
2.0
 41
2.5
340
60
342
1F0
  0
DIMSTYLE
105
24D
330
A
100
AcDbSymbolTableRecord
100
AcDbDimStyleTableRecord
  2
Direttrice(DIN)
 70
     0
 40
2.0
 41
2.5
340
60
342
1F0
  0
DIMSTYLE
105
24E
330
A
100
AcDbSymbolTableRecord
100
AcDbDimStyleTableRecord
  2
Direttrice(GB)
 70
     0
 40
2.0
 41
4.0
340
60
342
1F0
  0
DIMSTYLE
105
24F
330
A
100
AcDbSymbolTableRecord
100
AcDbDimStyleTableRecord
  2
Direttrice(ISO)
 70
     0
 40
2.0
 41
2.5
340
60
342
1F0
  0
DIMSTYLE
105
250
330
A
100
AcDbSymbolTableRecord
100
AcDbDimStyleTableRecord
  2
Direttrice(JIS)
 70
     0
 40
2.0
 41
2.5
340
60
342
1F0
  0
DIMSTYLE
105
251
330
A
100
AcDbSymbolTableRecord
100
AcDbDimStyleTableRecord
  2
GEN-ISO
 70
     0
 40
2.0
 41
2.5
340
60
342
1F0
  0
DIMSTYLE
105
252
330
A
100
AcDbSymbolTableRecord
100
AcDbDimStyleTableRecord
  2
GEN-ISO-AXE-F
 70
     0
 40
2.0
 41
2.5
340
60
342
1F0
  0
DIMSTYLE
105
253
330
A
100
AcDbSymbolTableRecord
100
AcDbDimStyleTableRecord
  2
GEN-ISO-AXE-H
 70
     0
 40
2.0
 41
2.5
340
60
342
1F0
  0
DIMSTYLE
105
254
330
A
100
AcDbSymbolTableRecord
100
AcDbDimStyleTableRecord
  2
GEN-ISO-POS
 70
     0
 40
2.0
 41
2.5
340
60
342
1F0
  0
DIMSTYLE
105
255
330
A
100
AcDbSymbolTableRecord
100
AcDbDimStyleTableRecord
  2
GEN-ISO$3
 70
     0
 40
2.0
 41
2.5
340
60
342
1F0
  0
DIMSTYLE
105
256
330
A
100
AcDbSymbolTableRecord
100
AcDbDimStyleTableRecord
  2
GEN-ISO$4
 70
     0
 40
2.0
 41
2.5
340
60
342
1F0
  0
DIMSTYLE
105
257
330
A
100
AcDbSymbolTableRecord
100
AcDbDimStyleTableRecord
  2
GEN-ISO$6
 70
     0
 40
2.0
 41
2.5
340
60
342
1F0
  0
DIMSTYLE
105
258
330
A
100
AcDbSymbolTableRecord
100
AcDbDimStyleTableRecord
  2
ISO-25
 70
     0
 40
2.0
 41
2.5
340
60
342
1F0
  0
DIMSTYLE
105
259
330
A
100
AcDbSymbolTableRecord
100
AcDbDimStyleTableRecord
  2
ISO-35
 70
     0
 40
2.0
 41
2.5
340
60
342
1F0
  0
DIMSTYLE
105
25A
330
A
100
AcDbSymbolTableRecord
100
AcDbDimStyleTableRecord
  2
ISO-5
 70
     0
 40
2.0
 41
2.5
340
60
342
1F0
  0
DIMSTYLE
105
25B
330
A
100
AcDbSymbolTableRecord
100
AcDbDimStyleTableRecord
  2
ISO-7
 70
     0
 40
2.0
 41
2.5
340
60
342
1F0
  0
DIMSTYLE
105
25C
330
A
100
AcDbSymbolTableRecord
100
AcDbDimStyleTableRecord
  2
ISO1
 70
     0
 40
2.0
 41
2.5
340
60
342
1F0
  0
DIMSTYLE
105
25D
330
A
100
AcDbSymbolTableRecord
100
AcDbDimStyleTableRecord
  2
ISO1-4
 70
     0
 40
2.0
 41
2.5
340
60
342
1F0
  0
DIMSTYLE
105
25E
330
A
100
AcDbSymbolTableRecord
100
AcDbDimStyleTableRecord
  2
ISO2
 70
     0
 40
2.0
 41
2.5
340
60
342
1F0
  0
DIMSTYLE
105
25F
330
A
100
AcDbSymbolTableRecord
100
AcDbDimStyleTableRecord
  2
MM-ANSI
 70
     0
 40
2.0
 41
2.5
340
60
342
1F0
  0
DIMSTYLE
105
260
330
A
100
AcDbSymbolTableRecord
100
AcDbDimStyleTableRecord
  2
X . XXX
 70
     0
 40
2.0
 41
2.5
340
60
342
1F0
  0
DIMSTYLE
105
261
330
A
100
AcDbSymbolTableRecord
100
AcDbDimStyleTableRecord
  2
X.X spazio grande e testo
 70
     0
 40
2.0
 41
2.5
340
60
342
1F0
  0
DIMSTYLE
105
262
330
A
100
AcDbSymbolTableRecord
100
AcDbDimStyleTableRecord
  2
X.XX mm [pollici]
 70
     0
 40
2.0
 41
2.5
340
60
342
1F0
  0
DIMSTYLE
105
263
330
A
100
AcDbSymbolTableRecord
100
AcDbDimStyleTableRecord
  2
X.XX Tol. di scostamento
 70
     0
 40
2.0
 41
2.5
340
60
342
1F0
  0
DIMSTYLE
105
264
330
A
100
AcDbSymbolTableRecord
100
AcDbDimStyleTableRecord
  2
X.XXX
 70
     0
 40
2.0
 41
2.5
340
60
342
1F0
  0
DIMSTYLE
105
265
330
A
100
AcDbSymbolTableRecord
100
AcDbDimStyleTableRecord
  2
X.XXX +_- tolleranza
 70
     0
 40
2.0
 41
2.5
340
60
342
1F0
  0
DIMSTYLE
105
266
330
A
100
AcDbSymbolTableRecord
100
AcDbDimStyleTableRecord
  2
X.XXX +tolleranza_-tolleranza
 70
     0
 40
2.0
 41
2.5
340
60
342
1F0
  0
DIMSTYLE
105
267
330
A
100
AcDbSymbolTableRecord
100
AcDbDimStyleTableRecord
  2
X.XXX Limiti - Impilati
 70
     0
 40
2.0
 41
2.5
340
60
342
1F0
  0
DIMSTYLE
105
268
330
A
100
AcDbSymbolTableRecord
100
AcDbDimStyleTableRecord
  2
X.XXX mm [pollici]
 70
     0
 40
2.0
 41
2.5
340
60
342
1F0
  0
DIMSTYLE
105
269
330
A
100
AcDbSymbolTableRecord
100
AcDbDimStyleTableRecord
  2
X.XXX piccola tolleranza
 70
     0
 40
2.0
 41
2.5
340
60
342
1F0
  0
DIMSTYLE
105
26A
330
A
100
AcDbSymbolTableRecord
100
AcDbDimStyleTableRecord
  2
X.XXX radiale
 70
     0
 40
2.0
 41
2.5
340
60
342
1F0
  0
ENDTAB
  0
TABLE
  2
BLOCK_RECORD
  5
1
330
0
100
AcDbSymbolTable
 70
    15
  0
BLOCK_RECORD
  5
77
330
1
100
AcDbSymbolTableRecord
100
AcDbBlockTableRecord
  2
*Model_Space
340
7A
  0
BLOCK_RECORD
  5
73
330
1
100
AcDbSymbolTableRecord
100
AcDbBlockTableRecord
  2
*Paper_Space
340
76
  0
BLOCK_RECORD
  5
7B
330
1
100
AcDbSymbolTableRecord
100
AcDbBlockTableRecord
  2
*Paper_Space0
340
7E
  0
BLOCK_RECORD
  5
1C7
330
1
100
AcDbSymbolTableRecord
100
AcDbBlockTableRecord
  2
Filled-1
340
0
  0
BLOCK_RECORD
  5
1DA
330
1
100
AcDbSymbolTableRecord
100
AcDbBlockTableRecord
  2
_Open
340
0
  0
BLOCK_RECORD
  5
1F0
330
1
100
AcDbSymbolTableRecord
100
AcDbBlockTableRecord
  2
_Closed
340
0
  0
BLOCK_RECORD
  5
21A
330
1
100
AcDbSymbolTableRecord
100
AcDbBlockTableRecord
  2
DatumFilled45
340
0
  0
BLOCK_RECORD
  5
227
330
1
100
AcDbSymbolTableRecord
100
AcDbBlockTableRecord
  2
DatumThickLine
340
0
  0
BLOCK_RECORD
  5
26B
330
1
100
AcDbSymbolTableRecord
100
AcDbBlockTableRecord
  2
REVISIONE
340
0
  0
BLOCK_RECORD
  5
28A
330
1
100
AcDbSymbolTableRecord
100
AcDbBlockTableRecord
  2
TIMBRO PER APPROVAZIONE
340
0
  0
BLOCK_RECORD
  5
299
330
1
100
AcDbSymbolTableRecord
100
AcDbBlockTableRecord
  2
TIMBRO INVIO DISEGNI
340
0
  0
BLOCK_RECORD
  5
2A4
330
1
100
AcDbSymbolTableRecord
100
AcDbBlockTableRecord
  2
Bordi Default Border
340
0
102
{BLKREFS
331
2CA
102
}
  0
BLOCK_RECORD
  5
52C
330
1
100
AcDbSymbolTableRecord
100
AcDbBlockTableRecord
  2
Cartigli COMUNELLO
340
0
  0
BLOCK_RECORD
  5
5E0
330
1
100
AcDbSymbolTableRecord
100
AcDbBlockTableRecord
  2
Elenco parti
340
0
  0
BLOCK_RECORD
  5
611
330
1
100
AcDbSymbolTableRecord
100
AcDbBlockTableRecord
  2
Numero di riferimento1
340
0
  0
BLOCK_RECORD
  5
623
330
1
100
AcDbSymbolTableRecord
100
AcDbBlockTableRecord
  2
Numero di riferimento2
340
0
  0
ENDTAB
  0
ENDSEC
  0
SECTION
  2
BLOCKS
  0
BLOCK
  5
78
330
77
100
AcDbEntity
  8
0
100
AcDbBlockBegin
  2
*Model_Space
 70
     0
 10
0.0
 20
0.0
 30
0.0
  3
*Model_Space
  1

  0
ENDBLK
  5
79
330
77
100
AcDbEntity
  8
0
100
AcDbBlockEnd
  0
BLOCK
  5
74
330
73
100
AcDbEntity
 67
     1
  8
0
100
AcDbBlockBegin
  2
*Paper_Space
 70
     0
 10
0.0
 20
0.0
 30
0.0
  3
*Paper_Space
  1

  0
ENDBLK
  5
75
330
73
100
AcDbEntity
 67
     1
  8
0
100
AcDbBlockEnd
  0
BLOCK
  5
7C
330
7B
100
AcDbEntity
 67
     1
  8
0
100
AcDbBlockBegin
  2
*Paper_Space0
 70
     0
 10
0.0
 20
0.0
 30
0.0
  3
*Paper_Space0
  1

  0
ENDBLK
  5
7D
330
7B
100
AcDbEntity
 67
     1
  8
0
100
AcDbBlockEnd
  0
BLOCK
  5
1C8
330
1C7
100
AcDbEntity
  8
0
100
AcDbBlockBegin
  2
Filled-1
 70
     0
 10
0.0
 20
0.0
 30
0.0
  3
Filled-1
  1

  0
LINE
  5
1CA
330
1C7
100
AcDbEntity
  8
0
 62
     0
100
AcDbLine
 10
-1.0
 20
0.0
 30
0.0
 11
0.0
 21
0.0
 31
0.0
  0
POLYLINE
  5
1CB
330
1C7
100
AcDbEntity
  8
0
 62
     0
100
AcDb2dPolyline
 66
     1
 10
0.0
 20
0.0
 30
0.0
 70
   128
  0
VERTEX
  5
1CC
330
1CB
100
AcDbEntity
  8
0
 62
     0
100
AcDbVertex
100
AcDb2dVertex
 10
-1.0
 20
-0.125
 30
0.0
  0
VERTEX
  5
1CD
330
1CB
100
AcDbEntity
  8
0
 62
     0
100
AcDbVertex
100
AcDb2dVertex
 10
0.0
 20
0.0
 30
0.0
  0
VERTEX
  5
1CF
330
1CB
100
AcDbEntity
  8
0
 62
     0
100
AcDbVertex
100
AcDb2dVertex
 10
-1.0
 20
0.125
 30
0.0
  0
VERTEX
  5
1D0
330
1CB
100
AcDbEntity
  8
0
 62
     0
100
AcDbVertex
100
AcDb2dVertex
 10
-1.0
 20
-0.125
 30
0.0
  0
SEQEND
  5
1CE
330
1CB
100
AcDbEntity
  8
0
 62
     0
  0
SOLID
  5
1D1
330
1C7
100
AcDbEntity
  8
0
 62
     0
100
AcDbTrace
 10
-1.0
 20
-0.125
 30
0.0
 11
0.0
 21
0.0
 31
0.0
 12
-1.0
 22
0.125
 32
0.0
 13
-1.0
 23
-0.125
 33
0.0
  0
LINE
  5
1D2
330
1C7
100
AcDbEntity
  8
0
 62
     0
100
AcDbLine
 10
-1.0
 20
-0.125
 30
0.0
 11
0.0
 21
0.0
 31
0.0
  0
LINE
  5
1D3
330
1C7
100
AcDbEntity
  8
0
 62
     0
100
AcDbLine
 10
0.0
 20
0.0
 30
0.0
 11
-1.0
 21
0.125
 31
0.0
  0
LINE
  5
1D4
330
1C7
100
AcDbEntity
  8
0
 62
     0
100
AcDbLine
 10
-1.0
 20
0.125
 30
0.0
 11
-1.0
 21
-0.125
 31
0.0
  0
ENDBLK
  5
1C9
330
1C7
100
AcDbEntity
  8
0
100
AcDbBlockEnd
  0
BLOCK
  5
1DE
330
1DA
100
AcDbEntity
  8
0
100
AcDbBlockBegin
  2
_Open
 70
     0
 10
0.0
 20
0.0
 30
0.0
  3
_Open
  1

  0
LINE
  5
1DB
330
1DA
100
AcDbEntity
  8
0
  6
ByBlock
 62
     0
370
    -2
100
AcDbLine
 10
-1.0
 20
0.1666666666666666
 30
0.0
 11
0.0
 21
0.0
 31
0.0
  0
LINE
  5
1DC
330
1DA
100
AcDbEntity
  8
0
  6
ByBlock
 62
     0
370
    -2
100
AcDbLine
 10
-1.0
 20
-0.1666666666666666
 30
0.0
 11
0.0
 21
0.0
 31
0.0
  0
LINE
  5
1DD
330
1DA
100
AcDbEntity
  8
0
  6
ByBlock
 62
     0
370
    -2
100
AcDbLine
 10
0.0
 20
0.0
 30
0.0
 11
-1.0
 21
0.0
 31
0.0
  0
ENDBLK
  5
1DF
330
1DA
100
AcDbEntity
  8
0
100
AcDbBlockEnd
  0
BLOCK
  5
1F5
330
1F0
100
AcDbEntity
  8
0
100
AcDbBlockBegin
  2
_Closed
 70
     0
 10
0.0
 20
0.0
 30
0.0
  3
_Closed
  1

  0
LINE
  5
1F1
330
1F0
100
AcDbEntity
  8
0
  6
ByBlock
 62
     0
370
    -2
100
AcDbLine
 10
-1.0
 20
0.1666666666666666
 30
0.0
 11
0.0
 21
0.0
 31
0.0
  0
LINE
  5
1F2
330
1F0
100
AcDbEntity
  8
0
  6
ByBlock
 62
     0
370
    -2
100
AcDbLine
 10
0.0
 20
0.0
 30
0.0
 11
-1.0
 21
-0.1666666666666666
 31
0.0
  0
LINE
  5
1F3
330
1F0
100
AcDbEntity
  8
0
  6
ByBlock
 62
     0
370
    -2
100
AcDbLine
 10
-1.0
 20
0.1666666666666666
 30
0.0
 11
-1.0
 21
-0.1666666666666666
 31
0.0
  0
LINE
  5
1F4
330
1F0
100
AcDbEntity
  8
0
  6
ByBlock
 62
     0
370
    -2
100
AcDbLine
 10
0.0
 20
0.0
 30
0.0
 11
-1.0
 21
0.0
 31
0.0
  0
ENDBLK
  5
1F6
330
1F0
100
AcDbEntity
  8
0
100
AcDbBlockEnd
  0
BLOCK
  5
21B
330
21A
100
AcDbEntity
  8
0
100
AcDbBlockBegin
  2
DatumFilled45
 70
     0
 10
0.0
 20
0.0
 30
0.0
  3
DatumFilled45
  1

  0
POLYLINE
  5
21D
330
21A
100
AcDbEntity
  8
0
 62
     0
100
AcDb2dPolyline
 66
     1
 10
0.0
 20
0.0
 30
0.0
 70
   128
  0
VERTEX
  5
21E
330
21D
100
AcDbEntity
  8
0
 62
     0
100
AcDbVertex
100
AcDb2dVertex
 10
0.0
 20
1.0
 30
0.0
  0
VERTEX
  5
21F
330
21D
100
AcDbEntity
  8
0
 62
     0
100
AcDbVertex
100
AcDb2dVertex
 10
0.0
 20
-1.0
 30
0.0
  0
VERTEX
  5
221
330
21D
100
AcDbEntity
  8
0
 62
     0
100
AcDbVertex
100
AcDb2dVertex
 10
-1.0
 20
0.0
 30
0.0
  0
VERTEX
  5
222
330
21D
100
AcDbEntity
  8
0
 62
     0
100
AcDbVertex
100
AcDb2dVertex
 10
0.0
 20
1.0
 30
0.0
  0
SEQEND
  5
220
330
21D
100
AcDbEntity
  8
0
 62
     0
  0
SOLID
  5
223
330
21A
100
AcDbEntity
  8
0
 62
     0
100
AcDbTrace
 10
0.0
 20
1.0
 30
0.0
 11
0.0
 21
-1.0
 31
0.0
 12
-1.0
 22
0.0
 32
0.0
 13
0.0
 23
1.0
 33
0.0
  0
ENDBLK
  5
21C
330
21A
100
AcDbEntity
  8
0
100
AcDbBlockEnd
  0
BLOCK
  5
228
330
227
100
AcDbEntity
  8
0
100
AcDbBlockBegin
  2
DatumThickLine
 70
     0
 10
0.0
 20
0.0
 30
0.0
  3
DatumThickLine
  1

  0
POLYLINE
  5
22A
330
227
100
AcDbEntity
  8
0
 62
     0
100
AcDb2dPolyline
 66
     1
 10
0.0
 20
0.0
 30
0.0
 70
   128
  0
VERTEX
  5
22B
330
22A
100
AcDbEntity
  8
0
 62
     0
100
AcDbVertex
100
AcDb2dVertex
 10
-0.25
 20
1.0
 30
0.0
  0
VERTEX
  5
22C
330
22A
100
AcDbEntity
  8
0
 62
     0
100
AcDbVertex
100
AcDb2dVertex
 10
-0.25
 20
-1.0
 30
0.0
  0
VERTEX
  5
22E
330
22A
100
AcDbEntity
  8
0
 62
     0
100
AcDbVertex
100
AcDb2dVertex
 10
-0.5
 20
-1.0
 30
0.0
  0
VERTEX
  5
22F
330
22A
100
AcDbEntity
  8
0
 62
     0
100
AcDbVertex
100
AcDb2dVertex
 10
-0.25
 20
1.0
 30
0.0
  0
SEQEND
  5
22D
330
22A
100
AcDbEntity
  8
0
 62
     0
  0
SOLID
  5
230
330
227
100
AcDbEntity
  8
0
 62
     0
100
AcDbTrace
 10
-0.25
 20
1.0
 30
0.0
 11
-0.25
 21
-1.0
 31
0.0
 12
-0.5
 22
-1.0
 32
0.0
 13
-0.25
 23
1.0
 33
0.0
  0
POLYLINE
  5
231
330
227
100
AcDbEntity
  8
0
 62
     0
100
AcDb2dPolyline
 66
     1
 10
0.0
 20
0.0
 30
0.0
 70
   128
  0
VERTEX
  5
232
330
231
100
AcDbEntity
  8
0
 62
     0
100
AcDbVertex
100
AcDb2dVertex
 10
-0.25
 20
1.0
 30
0.0
  0
VERTEX
  5
233
330
231
100
AcDbEntity
  8
0
 62
     0
100
AcDbVertex
100
AcDb2dVertex
 10
-0.5
 20
-1.0
 30
0.0
  0
VERTEX
  5
235
330
231
100
AcDbEntity
  8
0
 62
     0
100
AcDbVertex
100
AcDb2dVertex
 10
-0.5
 20
-1.0
 30
0.0
  0
VERTEX
  5
236
330
231
100
AcDbEntity
  8
0
 62
     0
100
AcDbVertex
100
AcDb2dVertex
 10
-0.25
 20
1.0
 30
0.0
  0
SEQEND
  5
234
330
231
100
AcDbEntity
  8
0
 62
     0
  0
SOLID
  5
237
330
227
100
AcDbEntity
  8
0
 62
     0
100
AcDbTrace
 10
-0.25
 20
1.0
 30
0.0
 11
-0.5
 21
-1.0
 31
0.0
 12
-0.5
 22
-1.0
 32
0.0
 13
-0.25
 23
1.0
 33
0.0
  0
POLYLINE
  5
238
330
227
100
AcDbEntity
  8
0
 62
     0
100
AcDb2dPolyline
 66
     1
 10
0.0
 20
0.0
 30
0.0
 70
   128
  0
VERTEX
  5
239
330
238
100
AcDbEntity
  8
0
 62
     0
100
AcDbVertex
100
AcDb2dVertex
 10
-0.25
 20
1.0
 30
0.0
  0
VERTEX
  5
23A
330
238
100
AcDbEntity
  8
0
 62
     0
100
AcDbVertex
100
AcDb2dVertex
 10
-0.5
 20
-1.0
 30
0.0
  0
VERTEX
  5
23C
330
238
100
AcDbEntity
  8
0
 62
     0
100
AcDbVertex
100
AcDb2dVertex
 10
-0.5
 20
1.0
 30
0.0
  0
VERTEX
  5
23D
330
238
100
AcDbEntity
  8
0
 62
     0
100
AcDbVertex
100
AcDb2dVertex
 10
-0.25
 20
1.0
 30
0.0
  0
SEQEND
  5
23B
330
238
100
AcDbEntity
  8
0
 62
     0
  0
SOLID
  5
23E
330
227
100
AcDbEntity
  8
0
 62
     0
100
AcDbTrace
 10
-0.25
 20
1.0
 30
0.0
 11
-0.5
 21
-1.0
 31
0.0
 12
-0.5
 22
1.0
 32
0.0
 13
-0.25
 23
1.0
 33
0.0
  0
POLYLINE
  5
23F
330
227
100
AcDbEntity
  8
0
 62
     0
100
AcDb2dPolyline
 66
     1
 10
0.0
 20
0.0
 30
0.0
 70
   128
  0
VERTEX
  5
240
330
23F
100
AcDbEntity
  8
0
 62
     0
100
AcDbVertex
100
AcDb2dVertex
 10
-0.25
 20
1.0
 30
0.0
  0
VERTEX
  5
241
330
23F
100
AcDbEntity
  8
0
 62
     0
100
AcDbVertex
100
AcDb2dVertex
 10
-0.5
 20
1.0
 30
0.0
  0
VERTEX
  5
243
330
23F
100
AcDbEntity
  8
0
 62
     0
100
AcDbVertex
100
AcDb2dVertex
 10
-0.25
 20
1.0
 30
0.0
  0
VERTEX
  5
244
330
23F
100
AcDbEntity
  8
0
 62
     0
100
AcDbVertex
100
AcDb2dVertex
 10
-0.25
 20
1.0
 30
0.0
  0
SEQEND
  5
242
330
23F
100
AcDbEntity
  8
0
 62
     0
  0
SOLID
  5
245
330
227
100
AcDbEntity
  8
0
 62
     0
100
AcDbTrace
 10
-0.25
 20
1.0
 30
0.0
 11
-0.5
 21
1.0
 31
0.0
 12
-0.25
 22
1.0
 32
0.0
 13
-0.25
 23
1.0
 33
0.0
  0
LINE
  5
246
330
227
100
AcDbEntity
  8
0
 62
     0
100
AcDbLine
 10
-1.0
 20
0.0
 30
0.0
 11
-0.5
 21
0.0
 31
0.0
  0
LINE
  5
247
330
227
100
AcDbEntity
  8
0
 62
     0
100
AcDbLine
 10
-0.5
 20
0.0
 30
0.0
 11
-1.0
 21
0.0
 31
0.0
  0
ENDBLK
  5
229
330
227
100
AcDbEntity
  8
0
100
AcDbBlockEnd
  0
BLOCK
  5
26C
330
26B
100
AcDbEntity
  8
0
100
AcDbBlockBegin
  2
REVISIONE
 70
     2
 10
0.0
 20
0.0
 30
0.0
  3
REVISIONE
  1

  0
LINE
  5
26E
330
26B
100
AcDbEntity
  8
Geometria schizzo(ISO)
100
AcDbLine
 10
-95.0
 20
-6.499999999999994
 30
0.0
 11
-95.0
 21
6.49999999999995
 31
0.0
  0
LINE
  5
26F
330
26B
100
AcDbEntity
  8
Geometria schizzo(ISO)
100
AcDbLine
 10
-95.00000000000001
 20
6.49999999999995
 30
0.0
 11
94.99999999999998
 21
6.500000000000003
 31
0.0
  0
LINE
  5
270
330
26B
100
AcDbEntity
  8
Geometria schizzo(ISO)
100
AcDbLine
 10
95.0
 20
6.500000000000003
 30
0.0
 11
95.0
 21
-6.499999999999985
 31
0.0
  0
LINE
  5
271
330
26B
100
AcDbEntity
  8
Geometria schizzo(ISO)
100
AcDbLine
 10
95.0
 20
-6.499999999999985
 30
0.0
 11
-95.0
 21
-6.499999999999994
 31
0.0
  0
LINE
  5
272
330
26B
100
AcDbEntity
  8
Geometria schizzo(ISO)
100
AcDbLine
 10
14.28199999999996
 20
6.500000000000003
 30
0.0
 11
14.28199999999996
 21
-6.499999999999994
 31
0.0
  0
LINE
  5
273
330
26B
100
AcDbEntity
  8
Geometria schizzo(ISO)
100
AcDbLine
 10
20.14999999999997
 20
6.500000000000003
 30
0.0
 11
20.14999999999997
 21
-6.499999999999994
 31
0.0
  0
LINE
  5
274
330
26B
100
AcDbEntity
  8
Geometria schizzo(ISO)
100
AcDbLine
 10
45.09999999999998
 20
6.500000000000003
 30
0.0
 11
45.09999999999998
 21
-6.499999999999985
 31
0.0
  0
LINE
  5
275
330
26B
100
AcDbEntity
  8
Geometria schizzo(ISO)
100
AcDbLine
 10
70.04999999999999
 20
6.500000000000003
 30
0.0
 11
70.04999999999999
 21
-6.499999999999985
 31
0.0
  0
LINE
  5
276
330
26B
100
AcDbEntity
  8
Geometria schizzo(ISO)
100
AcDbLine
 10
-95.0
 20
-1.500000000000021
 30
0.0
 11
95.0
 21
-1.499999999999976
 31
0.0
  0
LINE
  5
277
330
26B
100
AcDbEntity
  8
Geometria schizzo(ISO)
100
AcDbLine
 10
20.14999999999997
 20
2.499999999999982
 30
0.0
 11
95.0
 21
2.500000000000017
 31
0.0
  0
MTEXT
  5
278
330
26B
100
AcDbEntity
  8
Simboli(ISO)
 62
    96
100
AcDbMText
 10
-40.24999999999997
 20
-4.249999999999989
 30
0.0
 40
2.489199936389923
 41
109.5
 71
     5
 72
     1
  1
\fArial|b0|i0;\H2.4892;Descrizione Revisione
  7
Corrente-ISO
 73
     1
 44
1.0
1001
ACAD
1000
MTEXTBEGIN
1070
    73
1070
     1
1070
    44
1040
1.0
1070
    74
1070
     0
1000
MTEXTEND
  0
MTEXT
  5
27A
330
26B
100
AcDbEntity
  8
Simboli(ISO)
 62
    96
100
AcDbMText
 10
17.20910565308934
 20
-4.010830382627901
 30
0.0
 40
2.489199936389923
 41
5.876843529209256
 71
     5
 72
     1
  1
\fArial|b0|i0;\W0.90;\H2.4892;Rev
  7
Corrente-ISO
 73
     1
 44
1.0
1001
ACAD
1000
MTEXTBEGIN
1070
    73
1070
     1
1070
    44
1040
1.0
1070
    74
1070
     0
1000
MTEXTEND
  0
MTEXT
  5
27B
330
26B
100
AcDbEntity
  8
Simboli(ISO)
 62
    96
100
AcDbMText
 10
32.68356521178614
 20
-4.036669839269944
 30
0.0
 40
2.489199936389923
 41
24.96635793550775
 71
     5
 72
     1
  1
\fArial|b0|i0;\H2.4892;Disegnato
  7
Corrente-ISO
 73
     1
 44
1.0
1001
ACAD
1000
MTEXTBEGIN
1070
    73
1070
     1
1070
    44
1040
1.0
1070
    74
1070
     0
1000
MTEXTEND
  0
MTEXT
  5
27C
330
26B
100
AcDbEntity
  8
Simboli(ISO)
 62
    96
100
AcDbMText
 10
57.57373402865312
 20
-4.00232928281115
 30
0.0
 40
2.489199936389923
 41
24.92816610583702
 71
     5
 72
     1
  1
\fArial|b0|i0;\H2.4892;Verificato
  7
Corrente-ISO
 73
     1
 44
1.0
1001
ACAD
1000
MTEXTBEGIN
1070
    73
1070
     1
1070
    44
1040
1.0
1070
    74
1070
     0
1000
MTEXTEND
  0
MTEXT
  5
27D
330
26B
100
AcDbEntity
  8
Simboli(ISO)
 62
    96
100
AcDbMText
 10
82.5334947683379
 20
-4.033923917081256
 30
0.0
 40
2.489199936389923
 41
24.9913553735324
 71
     5
 72
     1
  1
\fArial|b0|i0;\H2.4892;Approvato
  7
Corrente-ISO
 73
     1
 44
1.0
1001
ACAD
1000
MTEXTBEGIN
1070
    73
1070
     1
1070
    44
1040
1.0
1070
    74
1070
     0
1000
MTEXTEND
  0
ATTDEF
  5
27F
102
{ACAD_XDICTIONARY
360
7C9
102
}
330
26B
100
AcDbEntity
  8
Simboli(ISO)
 62
     7
100
AcDbText
 10
-93.74928292882428
 20
2.972124334461173
 30
0.0
 40
2.489199936389923
  1
MODIFICATO QUOTA DA 20 A 25
  7
Stile testo15
100
AcDbAttributeDefinition
  3
DESCRIZIONE 1
  2
DESCRIZIONE_1_001
 70
     0
  0
ATTDEF
  5
282
102
{ACAD_XDICTIONARY
360
7CC
102
}
330
26B
100
AcDbEntity
  8
Simboli(ISO)
 62
     7
100
AcDbText
 10
-93.82699530276289
 20
-0.595967676708459
 30
0.0
 40
2.489199936389923
  1
MODIFICATO INTERASSE DA 80 A 90
  7
Stile testo15
100
AcDbAttributeDefinition
  3
DESCRIZIONE 2
  2
DESCRIZIONE_2_001
 70
     0
  0
ATTDEF
  5
284
102
{ACAD_XDICTIONARY
360
7CF
102
}
330
26B
100
AcDbEntity
  8
Simboli(ISO)
 62
     7
100
AcDbText
 10
15.07942979937668
 20
0.7317788596934767
 30
0.0
 40
3.499999940395355
  1
01
 41
0.9
  7
Stile testo116
100
AcDbAttributeDefinition
  3
NR.REV
  2
NR.REV_001
 70
     0
  0
ATTDEF
  5
286
102
{ACAD_XDICTIONARY
360
7D4
102
}
330
26B
100
AcDbEntity
  8
Simboli(ISO)
 62
     7
100
AcDbText
 10
24.69266896187769
 20
5.319801944745019
 30
0.0
 40
2.489199936389923
  1
FRIGETTO
 41
0.9
  7
Stile testo115
100
AcDbAttributeDefinition
  3
DISEGNATO
  2
DISEGNATO_001
 70
     0
  0
ATTDEF
  5
287
102
{ACAD_XDICTIONARY
360
7D7
102
}
330
26B
100
AcDbEntity
  8
Simboli(ISO)
 62
     7
100
AcDbText
 10
25.77243061391258
 20
-0.7581010970848934
 30
0.0
 40
2.489199936389923
  1
12-12-01
  7
Stile testo15
100
AcDbAttributeDefinition
  3
DATA
  2
DATA_001
 70
     0
  0
ATTDEF
  5
288
102
{ACAD_XDICTIONARY
360
7DA
102
}
330
26B
100
AcDbEntity
  8
Simboli(ISO)
 62
     7
100
AcDbText
 10
50.77760502093152
 20
-0.743400818037856
 30
0.0
 40
2.489199936389923
  1
12-12-01
  7
Stile testo15
100
AcDbAttributeDefinition
  3
DATA
  2
DATA_001
 70
     0
  0
ATTDEF
  5
289
102
{ACAD_XDICTIONARY
360
7DD
102
}
330
26B
100
AcDbEntity
  8
Simboli(ISO)
 62
     7
100
AcDbText
 10
75.72397831235503
 20
-0.7581010970848579
 30
0.0
 40
2.489199936389923
  1
12-12-01
  7
Stile testo15
100
AcDbAttributeDefinition
  3
DATA
  2
DATA_001
 70
     0
  0
ATTDEF
  5
969
102
{ACAD_XDICTIONARY
360
96A
102
}
330
26B
100
AcDbEntity
  8
Simboli(ISO)
 62
     7
100
AcDbText
 10
26.79083019066148
 20
1.126988591226022
 30
0.0
 40
2.489199936389923
  1
MAURO
 41
0.9
  7
Stile testo115
100
AcDbAttributeDefinition
  3
DISEGNATO
  2
DISEGNATO_002
 70
     0
  0
ENDBLK
  5
26D
330
26B
100
AcDbEntity
  8
0
100
AcDbBlockEnd
  0
BLOCK
  5
28B
330
28A
100
AcDbEntity
  8
0
100
AcDbBlockBegin
  2
TIMBRO PER APPROVAZIONE
 70
     0
 10
0.0
 20
0.0
 30
0.0
  3
TIMBRO PER APPROVAZIONE
  1

  0
LINE
  5
28D
330
28A
100
AcDbEntity
  8
Geometria schizzo(ISO)
 62
     7
100
AcDbLine
 10
34.85000000000001
 20
-9.100000000000004
 30
0.0
 11
-34.84999999999999
 21
-9.099999999999997
 31
0.0
  0
LINE
  5
28E
330
28A
100
AcDbEntity
  8
Geometria schizzo(ISO)
 62
     7
100
AcDbLine
 10
35.25
 20
-16.5
 30
0.0
 11
-35.24999999999999
 21
-16.5
 31
0.0
  0
LINE
  5
28F
330
28A
100
AcDbEntity
  8
Geometria schizzo(ISO)
 62
     7
100
AcDbLine
 10
-35.24999999999999
 20
-16.5
 30
0.0
 11
-35.25
 21
16.5
 31
0.0
  0
LINE
  5
290
330
28A
100
AcDbEntity
  8
Geometria schizzo(ISO)
 62
     7
100
AcDbLine
 10
-35.25
 20
16.5
 30
0.0
 11
35.25000000000001
 21
16.5
 31
0.0
  0
LINE
  5
291
330
28A
100
AcDbEntity
  8
Geometria schizzo(ISO)
 62
     7
100
AcDbLine
 10
35.25
 20
16.5
 30
0.0
 11
35.25
 21
-16.5
 31
0.0
  0
MTEXT
  5
292
330
28A
100
AcDbEntity
  8
Simboli(ISO)
 62
     7
100
AcDbMText
 10
-33.7105069207141
 20
-14.19215346071146
 30
0.0
 40
2.5
 41
0.0
 71
     7
 72
     1
  1
\fSwis721 BT|b0|i0;\H2.5000;DATA.........................FIRMA..........................
  7
Corrente-ISO
 73
     1
 44
1.25
1001
ACAD
1000
MTEXTBEGIN
1070
    73
1070
     1
1070
    44
1040
1.25
1070
    74
1070
     0
1000
MTEXTEND
  0
MTEXT
  5
293
330
28A
100
AcDbEntity
  8
Simboli(ISO)
 62
     7
100
AcDbMText
 10
-25.72449588474212
 20
11.13847904581678
 30
0.0
 40
3.499999940395355
 41
0.0
 71
     7
 72
     1
  1
\fSwis721 BT|b0|i0;\H3.5000;RESTITUIRE FIRMATO
  7
Corrente-ISO
 73
     1
 44
1.25
1001
ACAD
1000
MTEXTBEGIN
1070
    73
1070
     1
1070
    44
1040
1.25
1070
    74
1070
     0
1000
MTEXTEND
  0
MTEXT
  5
294
330
28A
100
AcDbEntity
  8
Simboli(ISO)
 62
     7
100
AcDbMText
 10
-28.95171691808511
 20
7.316396977395109
 30
0.0
 40
2.000000029802322
 41
0.0
 71
     7
 72
     1
  1
\fSwis721 BT|b0|i0;\H2.0000;L'APPROVAZIONE DEL DISEGNO DEFINISCE
  7
Corrente-ISO
 73
     1
 44
1.25
1001
ACAD
1000
MTEXTBEGIN
1070
    73
1070
     1
1070
    44
1040
1.25
1070
    74
1070
     0
1000
MTEXTEND
  0
MTEXT
  5
295
330
28A
100
AcDbEntity
  8
Simboli(ISO)
 62
     7
100
AcDbMText
 10
-25.76940871751251
 20
4.544968949952115
 30
0.0
 40
2.000000029802322
 41
0.0
 71
     7
 72
     1
  1
\fSwis721 BT|b0|i0;\H2.0000;L'ORDINE ED IL SUO PROSEGUIMENTO
  7
Corrente-ISO
 73
     1
 44
1.25
1001
ACAD
1000
MTEXTBEGIN
1070
    73
1070
     1
1070
    44
1040
1.25
1070
    74
1070
     0
1000
MTEXTEND
  0
MTEXT
  5
296
330
28A
100
AcDbEntity
  8
Simboli(ISO)
 62
     7
100
AcDbMText
 10
-31.13563506443334
 20
-5.098775396401857
 30
0.0
 40
2.000000029802322
 41
0.0
 71
     7
 72
     1
  1
\fSwis721 BT|b0|i0;\H2.0000;THE APPROVAL OF THE DRAWING DETERMINES
  7
Corrente-ISO
 73
     1
 44
1.25
1001
ACAD
1000
MTEXTBEGIN
1070
    73
1070
     1
1070
    44
1040
1.25
1070
    74
1070
     0
1000
MTEXTEND
  0
MTEXT
  5
297
330
28A
100
AcDbEntity
  8
Simboli(ISO)
 62
     7
100
AcDbMText
 10
-24.30740641391715
 20
-7.870204115351859
 30
0.0
 40
2.000000029802322
 41
0.0
 71
     7
 72
     1
  1
\fSwis721 BT|b0|i0;\H2.0000;THE ORDER AND ITS PROSECUTION
  7
Corrente-ISO
 73
     1
 44
1.25
1001
ACAD
1000
MTEXTBEGIN
1070
    73
1070
     1
1070
    44
1040
1.25
1070
    74
1070
     0
1000
MTEXTEND
  0
MTEXT
  5
298
330
28A
100
AcDbEntity
  8
Simboli(ISO)
 62
     7
100
AcDbMText
 10
-19.82985272453558
 20
-2.084089723680357
 30
0.0
 40
3.499999940395355
 41
0.0
 71
     7
 72
     1
  1
\fSwis721 BT|b0|i0;\H3.5000;RETURN SIGNED
  7
Corrente-ISO
 73
     1
 44
1.25
1001
ACAD
1000
MTEXTBEGIN
1070
    73
1070
     1
1070
    44
1040
1.25
1070
    74
1070
     0
1000
MTEXTEND
  0
ENDBLK
  5
28C
330
28A
100
AcDbEntity
  8
0
100
AcDbBlockEnd
  0
BLOCK
  5
29A
330
299
100
AcDbEntity
  8
0
100
AcDbBlockBegin
  2
TIMBRO INVIO DISEGNI
 70
     0
 10
0.0
 20
0.0
 30
0.0
  3
TIMBRO INVIO DISEGNI
  1

  0
LINE
  5
29C
330
299
100
AcDbEntity
  8
Geometria schizzo(ISO)
  6
Continuous
370
   140
100
AcDbLine
 10
0.0
 20
22.49999999999998
 30
0.0
 11
0.0
 21
0.0
 31
0.0
  0
LINE
  5
29D
330
299
100
AcDbEntity
  8
Geometria schizzo(ISO)
  6
Continuous
370
   140
100
AcDbLine
 10
0.0
 20
0.0
 30
0.0
 11
70.50000000000008
 21
0.0
 31
0.0
  0
LINE
  5
29E
330
299
100
AcDbEntity
  8
Geometria schizzo(ISO)
  6
Continuous
370
   140
100
AcDbLine
 10
70.50000000000008
 20
0.0
 30
0.0
 11
70.50000000000003
 21
22.5
 31
0.0
  0
LINE
  5
29F
330
299
100
AcDbEntity
  8
Geometria schizzo(ISO)
  6
Continuous
370
   140
100
AcDbLine
 10
70.50000000000003
 20
22.5
 30
0.0
 11
0.0
 21
22.49999999999998
 31
0.0
  0
MTEXT
  5
2A0
330
299
100
AcDbEntity
  8
Simboli(ISO)
 62
     7
100
AcDbMText
 10
2.899336189043077
 20
19.99303336238528
 30
0.0
 40
2.489199936389923
 41
66.17203235626219
 71
     1
 72
     1
  1
\fArial|b1|i0;\H2.4892;INVIO DISEGNO TRAMITE COMPUTER
  7
Corrente-ISO
 73
     1
 44
1.0
1001
ACAD
1000
MTEXTBEGIN
1070
    73
1070
     1
1070
    44
1040
1.0
1070
    74
1070
     0
1000
MTEXTEND
  0
MTEXT
  5
2A1
330
299
100
AcDbEntity
  8
Simboli(ISO)
 62
     7
100
AcDbMText
 10
6.717374444392016
 20
13.05512495578345
 30
0.0
 40
2.209800034761428
 41
56.78950309753417
 71
     1
 72
     1
  1
\fArial|b0|i0;\H2.2098;FIRME DI VERIFICA E APPROVAZIONE
  7
Corrente-ISO
 73
     1
 44
1.0
1001
ACAD
1000
MTEXTBEGIN
1070
    73
1070
     1
1070
    44
1040
1.0
1070
    74
1070
     0
1000
MTEXTEND
  0
MTEXT
  5
2A2
330
299
100
AcDbEntity
  8
Simboli(ISO)
 62
     7
100
AcDbMText
 10
6.65344964311584
 20
9.044092769503713
 30
0.0
 40
2.209800034761428
 41
57.3048973083496
 71
     1
 72
     1
  1
\fArial|b0|i0;\H2.2098;RIPORTATE SUL DISEGNO ORIGINALE
  7
Corrente-ISO
 73
     1
 44
1.0
1001
ACAD
1000
MTEXTBEGIN
1070
    73
1070
     1
1070
    44
1040
1.0
1070
    74
1070
     0
1000
MTEXTEND
  0
MTEXT
  5
2A3
330
299
100
AcDbEntity
  8
Simboli(ISO)
 62
     7
100
AcDbMText
 10
4.053371845049107
 20
4.974204064852525
 30
0.0
 40
2.209800034761428
 41
62.52453804016113
 71
     1
 72
     1
  1
\fArial|b0|i0;\H2.2098;ARCHIVIATE PRESSO L'UFFICIO TECNICO
  7
Corrente-ISO
 73
     1
 44
1.0
1001
ACAD
1000
MTEXTBEGIN
1070
    73
1070
     1
1070
    44
1040
1.0
1070
    74
1070
     0
1000
MTEXTEND
  0
ENDBLK
  5
29B
330
299
100
AcDbEntity
  8
0
100
AcDbBlockEnd
  0
BLOCK
  5
2A5
330
2A4
100
AcDbEntity
  8
0
100
AcDbBlockBegin
  2
Bordi Default Border
 70
     0
 10
0.0
 20
0.0
 30
0.0
  3
Bordi Default Border
  1

  0
POLYLINE
  5
2A7
330
2A4
100
AcDbEntity
  8
Bordo_0
100
AcDb2dPolyline
 66
     1
 10
0.0
 20
0.0
 30
0.0
 70
   128
  0
VERTEX
  5
2A8
330
2A7
100
AcDbEntity
  8
Bordo_0
100
AcDbVertex
100
AcDb2dVertex
 10
10.0
 20
10.0
 30
0.0
  0
VERTEX
  5
2A9
330
2A7
100
AcDbEntity
  8
Bordo_0
100
AcDbVertex
100
AcDb2dVertex
 10
10.0
 20
287.0000076293946
 30
0.0
  0
VERTEX
  5
2AB
330
2A7
100
AcDbEntity
  8
Bordo_0
100
AcDbVertex
100
AcDb2dVertex
 10
200.0
 20
287.0000076293946
 30
0.0
  0
VERTEX
  5
2AC
330
2A7
100
AcDbEntity
  8
Bordo_0
100
AcDbVertex
100
AcDb2dVertex
 10
200.0
 20
10.0
 30
0.0
  0
VERTEX
  5
2AD
330
2A7
100
AcDbEntity
  8
Bordo_0
100
AcDbVertex
100
AcDb2dVertex
 10
10.0
 20
10.0
 30
0.0
  0
SEQEND
  5
2AA
330
2A7
100
AcDbEntity
  8
Bordo_0
  0
POLYLINE
  5
2AE
330
2A4
100
AcDbEntity
  8
Bordo_0
100
AcDb2dPolyline
 66
     1
 10
0.0
 20
0.0
 30
0.0
 70
   128
  0
VERTEX
  5
2AF
330
2AE
100
AcDbEntity
  8
Bordo_0
100
AcDbVertex
100
AcDb2dVertex
 10
105.0
 20
0.0
 30
0.0
  0
VERTEX
  5
2B0
330
2AE
100
AcDbEntity
  8
Bordo_0
100
AcDbVertex
100
AcDb2dVertex
 10
105.0
 20
10.0
 30
0.0
  0
VERTEX
  5
2B2
330
2AE
100
AcDbEntity
  8
Bordo_0
100
AcDbVertex
100
AcDb2dVertex
 10
102.1132469177246
 20
5.0
 30
0.0
  0
VERTEX
  5
2B3
330
2AE
100
AcDbEntity
  8
Bordo_0
100
AcDbVertex
100
AcDb2dVertex
 10
107.8867530822754
 20
5.0
 30
0.0
  0
VERTEX
  5
2B4
330
2AE
100
AcDbEntity
  8
Bordo_0
100
AcDbVertex
100
AcDb2dVertex
 10
105.0
 20
10.0
 30
0.0
  0
SEQEND
  5
2B1
330
2AE
100
AcDbEntity
  8
Bordo_0
  0
POLYLINE
  5
2B5
330
2A4
100
AcDbEntity
  8
Bordo_0
100
AcDb2dPolyline
 66
     1
 10
0.0
 20
0.0
 30
0.0
 70
   128
  0
VERTEX
  5
2B6
330
2B5
100
AcDbEntity
  8
Bordo_0
100
AcDbVertex
100
AcDb2dVertex
 10
105.0
 20
297.0000076293946
 30
0.0
  0
VERTEX
  5
2B7
330
2B5
100
AcDbEntity
  8
Bordo_0
100
AcDbVertex
100
AcDb2dVertex
 10
105.0
 20
287.0000076293946
 30
0.0
  0
VERTEX
  5
2B9
330
2B5
100
AcDbEntity
  8
Bordo_0
100
AcDbVertex
100
AcDb2dVertex
 10
102.1132469177246
 20
292.0000076293945
 30
0.0
  0
VERTEX
  5
2BA
330
2B5
100
AcDbEntity
  8
Bordo_0
100
AcDbVertex
100
AcDb2dVertex
 10
107.8867530822754
 20
292.0000076293945
 30
0.0
  0
VERTEX
  5
2BB
330
2B5
100
AcDbEntity
  8
Bordo_0
100
AcDbVertex
100
AcDb2dVertex
 10
105.0
 20
287.0000076293946
 30
0.0
  0
SEQEND
  5
2B8
330
2B5
100
AcDbEntity
  8
Bordo_0
  0
POLYLINE
  5
2BC
330
2A4
100
AcDbEntity
  8
Bordo_0
100
AcDb2dPolyline
 66
     1
 10
0.0
 20
0.0
 30
0.0
 70
   128
  0
VERTEX
  5
2BD
330
2BC
100
AcDbEntity
  8
Bordo_0
100
AcDbVertex
100
AcDb2dVertex
 10
0.0
 20
148.5000038146973
 30
0.0
  0
VERTEX
  5
2BE
330
2BC
100
AcDbEntity
  8
Bordo_0
100
AcDbVertex
100
AcDb2dVertex
 10
10.0
 20
148.5000038146973
 30
0.0
  0
VERTEX
  5
2C0
330
2BC
100
AcDbEntity
  8
Bordo_0
100
AcDbVertex
100
AcDb2dVertex
 10
5.0
 20
151.3867473602295
 30
0.0
  0
VERTEX
  5
2C1
330
2BC
100
AcDbEntity
  8
Bordo_0
100
AcDbVertex
100
AcDb2dVertex
 10
5.0
 20
145.6132507324219
 30
0.0
  0
VERTEX
  5
2C2
330
2BC
100
AcDbEntity
  8
Bordo_0
100
AcDbVertex
100
AcDb2dVertex
 10
10.0
 20
148.5000038146973
 30
0.0
  0
SEQEND
  5
2BF
330
2BC
100
AcDbEntity
  8
Bordo_0
  0
POLYLINE
  5
2C3
330
2A4
100
AcDbEntity
  8
Bordo_0
100
AcDb2dPolyline
 66
     1
 10
0.0
 20
0.0
 30
0.0
 70
   128
  0
VERTEX
  5
2C4
330
2C3
100
AcDbEntity
  8
Bordo_0
100
AcDbVertex
100
AcDb2dVertex
 10
210.0
 20
148.5000038146973
 30
0.0
  0
VERTEX
  5
2C5
330
2C3
100
AcDbEntity
  8
Bordo_0
100
AcDbVertex
100
AcDb2dVertex
 10
200.0
 20
148.5000038146973
 30
0.0
  0
VERTEX
  5
2C7
330
2C3
100
AcDbEntity
  8
Bordo_0
100
AcDbVertex
100
AcDb2dVertex
 10
205.0
 20
151.3867473602295
 30
0.0
  0
VERTEX
  5
2C8
330
2C3
100
AcDbEntity
  8
Bordo_0
100
AcDbVertex
100
AcDb2dVertex
 10
205.0
 20
145.6132507324219
 30
0.0
  0
VERTEX
  5
2C9
330
2C3
100
AcDbEntity
  8
Bordo_0
100
AcDbVertex
100
AcDb2dVertex
 10
200.0
 20
148.5000038146973
 30
0.0
  0
SEQEND
  5
2C6
330
2C3
100
AcDbEntity
  8
Bordo_0
  0
ENDBLK
  5
2A6
330
2A4
100
AcDbEntity
  8
0
100
AcDbBlockEnd
  0
BLOCK
  5
52D
330
52C
100
AcDbEntity
  8
0
100
AcDbBlockBegin
  2
Cartigli COMUNELLO
 70
     2
 10
0.0
 20
0.0
 30
0.0
  3
Cartigli COMUNELLO
  1

  0
HATCH
  5
53B
330
52C
100
AcDbEntity
  8
Tratteggio
 62
     7
100
AcDbHatch
 10
0.0
 20
0.0
 30
0.0
210
0.0
220
0.0
230
1.0
  2
SOLID
 70
     1
 71
     0
 91
        2
 92
        0
 93
        6
 72
     1
 10
13.50007588364672
 20
19.89302050081428
 11
30.89993084866332
 21
19.89302050081416
 72
     1
 10
30.89993084866332
 20
19.89302050081416
 11
30.89993084866332
 21
23.04299424448097
 72
     1
 10
30.89993084866332
 20
23.04299424448097
 11
27.77220960581477
 21
23.04299424448103
 72
     2
 10
22.20000336615506
 20
37.30358966223789
 40
15.31058666564578
 50
68.65735037136855
 51
111.3426496286315
 73
     0
 72
     1
 10
16.62779712649531
 20
23.04299424448104
 11
13.50007588364672
 21
23.04299424448097
 72
     1
 10
13.50007588364672
 20
23.04299424448097
 11
13.50007588364672
 21
19.89302050081428
 97
        0
 92
        1
 93
        6
 72
     1
 10
32.69991584504435
 20
18.09303550443317
 11
32.69991584504435
 21
24.84297924086209
 72
     1
 10
32.69991584504435
 20
24.84297924086208
 11
27.42202839407664
 21
24.84297924086206
 72
     2
 10
22.20000336615506
 20
37.30358966223789
 40
13.51060166926475
 50
67.26229019813374
 51
112.7377098018664
 73
     0
 72
     1
 10
16.97797833823344
 20
24.84297924086206
 11
11.70009088726569
 21
24.84297924086208
 72
     1
 10
11.70009088726569
 20
24.84297924086208
 11
11.70009088726569
 21
18.09303550443317
 72
     1
 10
11.70009088726569
 20
18.09303550443317
 11
32.69991584504435
 21
18.09303550443317
 97
        0
 75
     0
 76
     1
 98
        1
 10
0.0
 20
0.0
  0
HATCH
  5
544
330
52C
100
AcDbEntity
  8
Tratteggio
 62
     7
100
AcDbHatch
 10
0.0
 20
0.0
 30
0.0
210
0.0
220
0.0
230
1.0
  2
SOLID
 70
     1
 71
     0
 91
        1
 92
        1
 93
        8
 72
     1
 10
95.05771295395282
 20
26.74999998775002
 11
27.77386600155343
 21
26.74999998775007
 72
     2
 10
22.20000336615506
 20
39.84359466344421
 40
14.23060667047108
 50
66.94084417726135
 51
113.0591558227387
 73
     0
 72
     1
 10
16.62614073075666
 20
26.74999998775004
 11
10.0
 21
26.74999998775003
 72
     1
 10
10.0
 20
26.74999998775003
 11
10.00000000000025
 21
26.24999998775003
 72
     1
 10
10.00000000000025
 20
26.24999998775003
 11
16.52506224989093
 21
26.24999998775001
 72
     2
 10
22.20000336615506
 20
39.84359466344421
 40
14.73060667047108
 50
247.3408443660875
 51
292.6591556339125
 73
     1
 72
     1
 10
27.87494448241919
 20
26.24999998775003
 11
95.05771295395282
 21
26.24999998775003
 72
     1
 10
95.05771295395282
 20
26.24999998775003
 11
95.05771295395282
 21
26.74999998775002
 97
        0
 75
     0
 76
     1
 98
        1
 10
0.0
 20
0.0
  0
HATCH
  5
551
330
52C
100
AcDbEntity
  8
Tratteggio
 62
     7
100
AcDbHatch
 10
0.0
 20
0.0
 30
0.0
210
0.0
220
0.0
230
1.0
  2
SOLID
 70
     1
 71
     0
 91
        2
 92
        0
 93
        6
 72
     1
 10
30.90009088726564
 20
32.93297924086207
 11
30.90009088726564
 21
29.78297924086208
 72
     1
 10
30.90009088726564
 20
29.78297924086208
 11
26.91257430898715
 21
29.78297924086208
 72
     2
 10
22.20009088726563
 20
39.83297924086207
 40
11.1
 50
64.87793981336809
 51
115.1220601866318
 73
     0
 72
     1
 10
17.48760746554413
 20
29.78297924086206
 11
13.50009088726564
 21
29.78297924086206
 72
     1
 10
13.50009088726564
 20
29.78297924086206
 11
13.50009088726564
 21
32.93297924086207
 72
     1
 10
13.50009088726564
 20
32.93297924086207
 11
30.90009088726564
 21
32.93297924086207
 97
        0
 92
        1
 93
        6
 72
     1
 10
11.70009088726567
 20
34.7329792408621
 11
32.70009088726567
 21
34.73297924086214
 72
     1
 10
32.70009088726567
 20
34.73297924086214
 11
32.70009088726565
 21
27.98297924086213
 72
     1
 10
32.70009088726565
 20
27.98297924086213
 11
27.30247474189664
 21
27.98297924086202
 72
     2
 10
22.20009088726567
 20
39.84297924086207
 40
12.911
 50
66.72176127080208
 51
113.2782387291978
 73
     0
 72
     1
 10
17.09770703263471
 20
27.98297924086201
 11
11.70009088726569
 21
27.98297924086199
 72
     1
 10
11.70009088726569
 20
27.98297924086199
 11
11.70009088726567
 21
34.7329792408621
 97
        0
 75
     0
 76
     1
 98
        1
 10
0.0
 20
0.0
  0
LINE
  5
552
330
52C
100
AcDbEntity
  8
Geometria schizzo(ISO)
  6
Continuous
 62
     7
370
    50
100
AcDbLine
 10
200.0
 20
67.5
 30
0.0
 11
10.0
 21
67.5
 31
0.0
  0
LINE
  5
553
330
52C
100
AcDbEntity
  8
Geometria schizzo(ISO)
  6
Continuous
 62
     7
370
    50
100
AcDbLine
 10
10.0
 20
59.5
 30
0.0
 11
200.0
 21
59.5
 31
0.0
  0
LINE
  5
554
330
52C
100
AcDbEntity
  8
Geometria schizzo(ISO)
  6
Continuous
 62
     7
370
    50
100
AcDbLine
 10
10.0
 20
54.5
 30
0.0
 11
200.0000000000002
 21
54.5
 31
0.0
  0
LINE
  5
555
330
52C
100
AcDbEntity
  8
Geometria schizzo(ISO)
  6
Continuous
 62
     7
370
    50
100
AcDbLine
 10
9.999999999999998
 20
46.49999997550015
 30
0.0
 11
200.0000000000002
 21
46.49999997550015
 31
0.0
  0
LINE
  5
556
330
52C
100
AcDbEntity
  8
Geometria schizzo(ISO)
  6
Continuous
 62
     7
370
    50
100
AcDbLine
 10
10.0
 20
38.49999997550006
 30
0.0
 11
200.0000000000002
 21
38.49999997550006
 31
0.0
  0
LINE
  5
557
330
52C
100
AcDbEntity
  8
Geometria schizzo(ISO)
  6
Continuous
 62
     7
370
    50
100
AcDbLine
 10
10.0
 20
14.5
 30
0.0
 11
200.0
 21
14.5
 31
0.0
  0
LINE
  5
558
330
52C
100
AcDbEntity
  8
Geometria schizzo(ISO)
  6
Continuous
 62
     7
370
    50
100
AcDbLine
 10
10.0
 20
10.0
 30
0.0
 11
200.0
 21
10.0
 31
0.0
  0
LINE
  5
559
330
52C
100
AcDbEntity
  8
Geometria schizzo(ISO)
  6
Continuous
 62
     7
370
    50
100
AcDbLine
 10
126.5003211145929
 20
30.50000000000001
 30
0.0
 11
200.0
 21
30.50000000000001
 31
0.0
  0
LINE
  5
55A
330
52C
100
AcDbEntity
  8
Geometria schizzo(ISO)
  6
Continuous
 62
     7
370
    50
100
AcDbLine
 10
126.5003211145929
 20
22.5
 30
0.0
 11
200.0
 21
22.5
 31
0.0
  0
LINE
  5
55B
330
52C
100
AcDbEntity
  8
Geometria schizzo(ISO)
  6
Continuous
 62
     7
370
    50
100
AcDbLine
 10
10.0
 20
10.0
 30
0.0
 11
9.999999999999998
 21
67.5
 31
0.0
  0
LINE
  5
55C
330
52C
100
AcDbEntity
  8
Geometria schizzo(ISO)
  6
Continuous
 62
     7
370
    50
100
AcDbLine
 10
82.71476190476196
 20
67.5
 30
0.0
 11
82.71476190476199
 21
38.49999997550006
 31
0.0
  0
LINE
  5
55D
330
52C
100
AcDbEntity
  8
Geometria schizzo(ISO)
  6
Continuous
 62
     7
370
    50
100
AcDbLine
 10
34.23825396825403
 20
46.49999997550015
 30
0.0
 11
34.23825396825403
 21
38.49999997550006
 31
0.0
  0
LINE
  5
55E
330
52C
100
AcDbEntity
  8
Geometria schizzo(ISO)
  6
Continuous
 62
     7
370
    50
100
AcDbLine
 10
58.47650793650799
 20
46.49999997550015
 30
0.0
 11
58.47650793650799
 21
38.49999997550003
 31
0.0
  0
LINE
  5
55F
330
52C
100
AcDbEntity
  8
Geometria schizzo(ISO)
  6
Continuous
 62
     7
370
    50
100
AcDbLine
 10
111.6495238095238
 20
67.5
 30
0.0
 11
111.6495238095238
 21
38.4999999755002
 31
0.0
  0
LINE
  5
560
330
52C
100
AcDbEntity
  8
Geometria schizzo(ISO)
  6
Continuous
 62
     7
370
    50
100
AcDbLine
 10
126.5003211145929
 20
46.49999997550015
 30
0.0
 11
126.5003211145929
 21
14.5
 31
0.0
  0
LINE
  5
561
330
52C
100
AcDbEntity
  8
Geometria schizzo(ISO)
  6
Continuous
 62
     7
370
    50
100
AcDbLine
 10
159.8068536898258
 20
46.49999997550015
 30
0.0
 11
159.8068536898258
 21
22.5
 31
0.0
  0
LINE
  5
562
330
52C
100
AcDbEntity
  8
Geometria schizzo(ISO)
  6
Continuous
 62
     7
370
    50
100
AcDbLine
 10
176.9329761904763
 20
67.5
 30
0.0
 11
176.9329761904763
 21
22.5
 31
0.0
  0
LINE
  5
563
330
52C
100
AcDbEntity
  8
Geometria schizzo(ISO)
  6
Continuous
 62
     7
370
    50
100
AcDbLine
 10
200.0
 20
67.5
 30
0.0
 11
200.0
 21
10.0
 31
0.0
  0
LINE
  5
564
330
52C
100
AcDbEntity
  8
Geometria schizzo(ISO)
  6
Continuous
 62
     7
370
    50
100
AcDbLine
 10
32.69991584504435
 20
18.09303550443317
 30
0.0
 11
32.69991584504435
 21
24.84297924086208
 31
0.0
  0
LINE
  5
565
330
52C
100
AcDbEntity
  8
Geometria schizzo(ISO)
  6
Continuous
 62
     7
370
    50
100
AcDbLine
 10
30.89993084866332
 20
19.89302050081416
 30
0.0
 11
30.89993084866332
 21
23.04299424448097
 31
0.0
  0
LINE
  5
566
330
52C
100
AcDbEntity
  8
Geometria schizzo(ISO)
  6
Continuous
 62
     7
370
    50
100
AcDbLine
 10
11.70009088726569
 20
18.09303550443317
 30
0.0
 11
11.70009088726569
 21
24.84297924086208
 31
0.0
  0
LINE
  5
567
330
52C
100
AcDbEntity
  8
Geometria schizzo(ISO)
  6
Continuous
 62
     7
370
    50
100
AcDbLine
 10
13.50007588364672
 20
19.89302050081428
 30
0.0
 11
13.50007588364672
 21
23.04299424448097
 31
0.0
  0
LINE
  5
568
330
52C
100
AcDbEntity
  8
Geometria schizzo(ISO)
  6
Continuous
 62
     7
370
    50
100
AcDbLine
 10
32.69991584504435
 20
18.09303550443317
 30
0.0
 11
11.70009088726569
 21
18.09303550443317
 31
0.0
  0
LINE
  5
569
330
52C
100
AcDbEntity
  8
Geometria schizzo(ISO)
  6
Continuous
 62
     7
370
    50
100
AcDbLine
 10
30.89993084866332
 20
19.89302050081416
 30
0.0
 11
13.50007588364672
 21
19.89302050081428
 31
0.0
  0
ARC
  5
56A
330
52C
100
AcDbEntity
  8
Geometria schizzo(ISO)
  6
Continuous
 62
     7
370
    50
100
AcDbCircle
 10
22.20000336615506
 20
37.30358966223789
 30
0.0
 40
15.31058666564578
100
AcDbArc
 50
248.6573503713684
 51
291.3426496286315
  0
ARC
  5
56B
330
52C
100
AcDbEntity
  8
Geometria schizzo(ISO)
  6
Continuous
 62
     7
370
    50
100
AcDbCircle
 10
22.20000336615506
 20
37.30358966223789
 30
0.0
 40
13.51060166926475
100
AcDbArc
 50
247.2622901981336
 51
292.7377098018663
  0
LINE
  5
56C
330
52C
100
AcDbEntity
  8
Geometria schizzo(ISO)
  6
Continuous
 62
     7
370
    50
100
AcDbLine
 10
11.70009088726569
 20
24.84297924086208
 30
0.0
 11
16.97797833823344
 21
24.84297924086206
 31
0.0
  0
LINE
  5
56D
330
52C
100
AcDbEntity
  8
Geometria schizzo(ISO)
  6
Continuous
 62
     7
370
    50
100
AcDbLine
 10
13.50007588364672
 20
23.04299424448097
 30
0.0
 11
16.62779712649531
 21
23.04299424448104
 31
0.0
  0
LINE
  5
56E
330
52C
100
AcDbEntity
  8
Geometria schizzo(ISO)
  6
Continuous
 62
     7
370
    50
100
AcDbLine
 10
27.42202839407664
 20
24.84297924086206
 30
0.0
 11
32.69991584504435
 21
24.84297924086208
 31
0.0
  0
LINE
  5
56F
330
52C
100
AcDbEntity
  8
Geometria schizzo(ISO)
  6
Continuous
 62
     7
370
    50
100
AcDbLine
 10
27.77220960581477
 20
23.04299424448103
 30
0.0
 11
30.89993084866332
 21
23.04299424448097
 31
0.0
  0
LINE
  5
570
330
52C
100
AcDbEntity
  8
Geometria schizzo(ISO)
  6
Continuous
 62
     7
370
    50
100
AcDbLine
 10
95.05771295395282
 20
26.74999998775002
 30
0.0
 11
95.05771295395282
 21
26.24999998775003
 31
0.0
  0
LINE
  5
571
330
52C
100
AcDbEntity
  8
Geometria schizzo(ISO)
  6
Continuous
 62
     7
370
    50
100
AcDbLine
 10
16.62614073075666
 20
26.74999998775004
 30
0.0
 11
10.0
 21
26.74999998775003
 31
0.0
  0
ARC
  5
572
330
52C
100
AcDbEntity
  8
Geometria schizzo(ISO)
  6
Continuous
 62
     7
370
    50
100
AcDbCircle
 10
22.20000336615506
 20
39.84359466344421
 30
0.0
 40
14.23060667047107
100
AcDbArc
 50
246.9408441772613
 51
293.0591558227387
  0
LINE
  5
573
330
52C
100
AcDbEntity
  8
Geometria schizzo(ISO)
  6
Continuous
 62
     7
370
    50
100
AcDbLine
 10
27.77386600155342
 20
26.74999998775007
 30
0.0
 11
95.05771295395282
 21
26.74999998775002
 31
0.0
  0
LINE
  5
574
330
52C
100
AcDbEntity
  8
Geometria schizzo(ISO)
  6
Continuous
 62
     7
370
    50
100
AcDbLine
 10
27.87494448241919
 20
26.24999998775003
 30
0.0
 11
95.05771295395282
 21
26.24999998775003
 31
0.0
  0
ARC
  5
575
330
52C
100
AcDbEntity
  8
Geometria schizzo(ISO)
  6
Continuous
 62
     7
370
    50
100
AcDbCircle
 10
22.20000336615506
 20
39.84359466344421
 30
0.0
 40
14.73060667047108
100
AcDbArc
 50
247.3408443660875
 51
292.6591556339125
  0
LINE
  5
576
330
52C
100
AcDbEntity
  8
Geometria schizzo(ISO)
  6
Continuous
 62
     7
370
    50
100
AcDbLine
 10
16.52506224989093
 20
26.24999998775001
 30
0.0
 11
10.00000000000025
 21
26.24999998775003
 31
0.0
  0
LINE
  5
577
330
52C
100
AcDbEntity
  8
Geometria schizzo(ISO)
  6
Continuous
 62
     7
370
    50
100
AcDbLine
 10
10.0
 20
26.74999998775003
 30
0.0
 11
10.00000000000025
 21
26.24999998775003
 31
0.0
  0
LINE
  5
578
330
52C
100
AcDbEntity
  8
Geometria schizzo(ISO)
  6
Continuous
 62
     7
370
    50
100
AcDbLine
 10
70.09301344488737
 20
40.10977632401654
 30
0.0
 11
70.06166132979082
 21
45.19999997550015
 31
0.0
  0
LINE
  5
579
330
52C
100
AcDbEntity
  8
Geometria schizzo(ISO)
  6
Continuous
 62
     7
370
    50
100
AcDbLine
 10
62.715217801343
 20
44.2999999755001
 30
0.0
 11
70.06166132979082
 21
45.19999997550015
 31
0.0
  0
LINE
  5
57A
330
52C
100
AcDbEntity
  8
Geometria schizzo(ISO)
  6
Continuous
 62
     7
370
    50
100
AcDbLine
 10
62.715217801343
 20
40.69999997550009
 30
0.0
 11
70.09301344488737
 21
40.10977632401654
 31
0.0
  0
LINE
  5
57B
330
52C
100
AcDbEntity
  8
Geometria schizzo(ISO)
  6
Continuous
 62
     7
370
    50
100
AcDbLine
 10
62.715217801343
 20
40.69999997550009
 30
0.0
 11
62.715217801343
 21
44.2999999755001
 31
0.0
  0
LINE
  5
57C
330
52C
100
AcDbEntity
  8
Geometria schizzo(ISO)
  6
LONG_DASH_DOTTED
 62
     7
 48
25.40819931030274
370
    25
100
AcDbLine
 10
61.89509347490513
 20
42.4999999755001
 30
0.0
 11
79.03957443821731
 21
42.4999999755001
 31
0.0
  0
CIRCLE
  5
57D
330
52C
100
AcDbEntity
  8
Geometria schizzo(ISO)
  6
Continuous
 62
     7
370
    50
100
AcDbCircle
 10
75.61970665301604
 20
42.4999999755001
 30
0.0
 40
2.835161292266829
  0
CIRCLE
  5
57E
330
52C
100
AcDbEntity
  8
Geometria schizzo(ISO)
  6
Continuous
 62
     7
370
    50
100
AcDbCircle
 10
75.61970665301604
 20
42.4999999755001
 30
0.0
 40
1.8
  0
LINE
  5
57F
330
52C
100
AcDbEntity
  8
Geometria schizzo(ISO)
  6
DASH_DOT
 62
     7
 48
25.41209030151367
370
    25
100
AcDbLine
 10
75.61970665301604
 20
45.98912961192912
 30
0.0
 11
75.61970665301604
 21
39.01126421122319
 31
0.0
  0
LINE
  5
580
330
52C
100
AcDbEntity
  8
Geometria schizzo(ISO)
100
AcDbLine
 10
13.50009088726564
 20
32.93297924086207
 30
0.0
 11
30.90009088726564
 21
32.93297924086207
 31
0.0
  0
LINE
  5
581
330
52C
100
AcDbEntity
  8
Geometria schizzo(ISO)
100
AcDbLine
 10
30.90009088726564
 20
32.93297924086207
 30
0.0
 11
30.90009088726564
 21
29.78297924086208
 31
0.0
  0
LINE
  5
582
330
52C
100
AcDbEntity
  8
Geometria schizzo(ISO)
100
AcDbLine
 10
30.90009088726564
 20
29.78297924086208
 30
0.0
 11
26.91257430898715
 21
29.78297924086208
 31
0.0
  0
LINE
  5
583
330
52C
100
AcDbEntity
  8
Geometria schizzo(ISO)
100
AcDbLine
 10
13.50009088726564
 20
32.93297924086207
 30
0.0
 11
13.50009088726564
 21
29.78297924086206
 31
0.0
  0
LINE
  5
584
330
52C
100
AcDbEntity
  8
Geometria schizzo(ISO)
100
AcDbLine
 10
13.50009088726564
 20
29.78297924086206
 30
0.0
 11
17.48760746554413
 21
29.78297924086206
 31
0.0
  0
ARC
  5
585
330
52C
100
AcDbEntity
  8
Geometria schizzo(ISO)
100
AcDbCircle
 10
22.20009088726563
 20
39.83297924086207
 30
0.0
 40
11.1
100
AcDbArc
 50
244.8779398133681
 51
295.122060186632
  0
LINE
  5
586
330
52C
100
AcDbEntity
  8
Geometria schizzo(ISO)
100
AcDbLine
 10
11.70009088726567
 20
34.7329792408621
 30
0.0
 11
32.70009088726567
 21
34.73297924086214
 31
0.0
  0
LINE
  5
587
330
52C
100
AcDbEntity
  8
Geometria schizzo(ISO)
100
AcDbLine
 10
32.70009088726567
 20
34.73297924086214
 30
0.0
 11
32.70009088726565
 21
27.98297924086213
 31
0.0
  0
LINE
  5
588
330
52C
100
AcDbEntity
  8
Geometria schizzo(ISO)
100
AcDbLine
 10
32.70009088726565
 20
27.98297924086213
 30
0.0
 11
27.30247474189664
 21
27.98297924086202
 31
0.0
  0
LINE
  5
589
330
52C
100
AcDbEntity
  8
Geometria schizzo(ISO)
100
AcDbLine
 10
11.70009088726567
 20
34.7329792408621
 30
0.0
 11
11.70009088726569
 21
27.98297924086199
 31
0.0
  0
LINE
  5
58A
330
52C
100
AcDbEntity
  8
Geometria schizzo(ISO)
100
AcDbLine
 10
11.70009088726569
 20
27.98297924086199
 30
0.0
 11
17.09770703263471
 21
27.98297924086201
 31
0.0
  0
ARC
  5
58B
330
52C
100
AcDbEntity
  8
Geometria schizzo(ISO)
100
AcDbCircle
 10
22.20009088726567
 20
39.84297924086207
 30
0.0
 40
12.911
100
AcDbArc
 50
246.7217612708022
 51
293.2782387291979
  0
CIRCLE
  5
58C
330
52C
100
AcDbEntity
  8
Geometria schizzo(ISO)
  6
Continuous
370
    25
100
AcDbCircle
 10
94.17107124803315
 20
30.38071944555288
 30
0.0
 40
1.196319387325194
  0
LINE
  5
58D
330
52C
100
AcDbEntity
  8
Geometria schizzo(ISO)
100
AcDbLine
 10
0.0
 20
10.0
 30
0.0
 11
0.0
 21
12.0
 31
0.0
  0
LINE
  5
58E
330
52C
100
AcDbEntity
  8
Geometria schizzo(ISO)
100
AcDbLine
 10
200.0
 20
297.0
 30
0.0
 11
198.0000000000001
 21
297.0
 31
0.0
  0
MTEXT
  5
58F
330
52C
100
AcDbEntity
  8
Simboli(ISO)
 62
    96
100
AcDbMText
 10
46.375
 20
57.00000000000001
 30
0.0
 40
2.489199936389923
 41
72.75
 71
     5
 72
     1
  1
\fArial|b0|i0;\H2.4892;Denominazione
  7
Corrente-ISO
 73
     1
 44
1.0
1001
ACAD
1000
MTEXTBEGIN
1070
    73
1070
     1
1070
    44
1040
1.0
1070
    74
1070
     0
1000
MTEXTEND
  0
MTEXT
  5
590
330
52C
100
AcDbEntity
  8
Simboli(ISO)
 62
    96
100
AcDbMText
 10
97.25000000000001
 20
57.00000000000001
 30
0.0
 40
2.489199936389923
 41
29.0
 71
     5
 72
     1
  1
\fArial|b0|i0;\H2.4892;Codice Disegno
  7
Corrente-ISO
 73
     1
 44
1.0
1001
ACAD
1000
MTEXTBEGIN
1070
    73
1070
     1
1070
    44
1040
1.0
1070
    74
1070
     0
1000
MTEXTEND
  0
MTEXT
  5
591
330
52C
100
AcDbEntity
  8
Simboli(ISO)
 62
    96
100
AcDbMText
 10
144.375
 20
57.00000000000001
 30
0.0
 40
2.489199936389923
 41
65.24999999999998
 71
     5
 72
     1
  1
\fArial|b0|i0;\H2.4892;Materiale-UNI
  7
Corrente-ISO
 73
     1
 44
1.0
1001
ACAD
1000
MTEXTBEGIN
1070
    73
1070
     1
1070
    44
1040
1.0
1070
    74
1070
     0
1000
MTEXTEND
  0
MTEXT
  5
592
330
52C
100
AcDbEntity
  8
Simboli(ISO)
 62
    96
100
AcDbMText
 10
188.5
 20
57.00000000000001
 30
0.0
 40
2.489199936389923
 41
23.00000000000001
 71
     5
 72
     1
  1
\fArial|b0|i0;\H2.4892;Codice Mater.
  7
Corrente-ISO
 73
     1
 44
1.0
1001
ACAD
1000
MTEXTBEGIN
1070
    73
1070
     1
1070
    44
1040
1.0
1070
    74
1070
     0
1000
MTEXTEND
  0
MTEXT
  5
593
330
52C
100
AcDbEntity
  8
Simboli(ISO)
 62
    96
100
AcDbMText
 10
11.03637498653142
 20
53.62542943640336
 30
0.0
 40
2.489199936389923
 41
0.0
 71
     1
 72
     1
  1
\fArial|b0|i0;\H2.4892;Tolleranze Generali
  7
Corrente-ISO
 73
     1
 44
1.0
1001
ACAD
1000
MTEXTBEGIN
1070
    73
1070
     1
1070
    44
1040
1.0
1070
    74
1070
     0
1000
MTEXTEND
  0
MTEXT
  5
594
330
52C
100
AcDbEntity
  8
Simboli(ISO)
 62
    96
100
AcDbMText
 10
22.0
 20
45.62331331753725
 30
0.0
 40
2.489199936389923
 41
22.0
 71
     2
 72
     1
  1
\fArial|b0|i0;\H2.4892;Sostituisce il
  7
Corrente-ISO
 73
     1
 44
1.0
1001
ACAD
1000
MTEXTBEGIN
1070
    73
1070
     1
1070
    44
1040
1.0
1070
    74
1070
     0
1000
MTEXTEND
  0
MTEXT
  5
595
330
52C
100
AcDbEntity
  8
Simboli(ISO)
 62
    96
100
AcDbMText
 10
46.5
 20
45.57392268569088
 30
0.0
 40
2.489199936389923
 41
23.0
 71
     2
 72
     1
  1
\fArial|b0|i0;\H2.4892;Sostituito dal
  7
Corrente-ISO
 73
     1
 44
1.0
1001
ACAD
1000
MTEXTBEGIN
1070
    73
1070
     1
1070
    44
1040
1.0
1070
    74
1070
     0
1000
MTEXTEND
  0
MTEXT
  5
596
330
52C
100
AcDbEntity
  8
Simboli(ISO)
 62
    96
100
AcDbMText
 10
84.0
 20
45.52415962817554
 30
0.0
 40
2.489199936389923
 41
20.0
 71
     1
 72
     1
  1
\fArial|b0|i0;\H2.4892;Scala
  7
Corrente-ISO
 73
     1
 44
1.0
1001
ACAD
1000
MTEXTBEGIN
1070
    73
1070
     1
1070
    44
1040
1.0
1070
    74
1070
     0
1000
MTEXTEND
  0
MTEXT
  5
597
330
52C
100
AcDbEntity
  8
Simboli(ISO)
 62
    96
100
AcDbMText
 10
119.2198163354513
 20
45.48687767908593
 30
0.0
 40
2.489199936389923
 41
12.5
 71
     2
 72
     1
  1
\fArial|b0|i0;\H2.4892;Foglio\P 
  7
Corrente-ISO
 73
     2
 44
0.9442214369773864
1001
ACAD
1000
MTEXTBEGIN
1070
    73
1070
     2
1070
    44
1040
0.9442214369773864
1070
    74
1070
     0
1000
MTEXTEND
  0
MTEXT
  5
598
330
52C
100
AcDbEntity
  8
Simboli(ISO)
 62
    96
100
AcDbMText
 10
97.44767410410688
 20
52.26743745909543
 30
0.0
 40
2.489199936389923
 41
27.00000000000001
 71
     5
 72
     1
  1
\fArial|b0|i0;\H2.4892;Peso Unit.(Kg)
  7
Corrente-ISO
 73
     1
 44
1.0
1001
ACAD
1000
MTEXTBEGIN
1070
    73
1070
     1
1070
    44
1040
1.0
1070
    74
1070
     0
1000
MTEXTEND
  0
MTEXT
  5
599
330
52C
100
AcDbEntity
  8
Simboli(ISO)
 62
    96
100
AcDbMText
 10
113.0
 20
53.52906693798992
 30
0.0
 40
2.489199936389923
 41
41.5
 71
     1
 72
     1
  1
\fArial|b0|i0;\H2.4892;Trattamento
  7
Corrente-ISO
 73
     1
 44
1.0
1001
ACAD
1000
MTEXTBEGIN
1070
    73
1070
     1
1070
    44
1040
1.0
1070
    74
1070
     0
1000
MTEXTEND
  0
MTEXT
  5
59A
330
52C
100
AcDbEntity
  8
Simboli(ISO)
 62
    96
100
AcDbMText
 10
188.6268379764541
 20
52.23897215805649
 30
0.0
 40
2.489199936389923
 41
21.64389610290527
 71
     5
 72
     1
  1
\fArial|b0|i0;\H2.4892;Coeff.Impiego
  7
Corrente-ISO
 73
     1
 44
1.0
1001
ACAD
1000
MTEXTBEGIN
1070
    73
1070
     1
1070
    44
1040
1.0
1070
    74
1070
     0
1000
MTEXTEND
  0
MTEXT
  5
59B
330
52C
100
AcDbEntity
  8
Simboli(ISO)
 62
    96
100
AcDbMText
 10
127.0
 20
45.54724501095818
 30
0.0
 40
2.489199936389923
 41
32.5
 71
     1
 72
     1
  1
\fArial|b0|i0;\H2.4892;Disegnato
  7
Corrente-ISO
 73
     1
 44
1.0
1001
ACAD
1000
MTEXTBEGIN
1070
    73
1070
     1
1070
    44
1040
1.0
1070
    74
1070
     0
1000
MTEXTEND
  0
MTEXT
  5
59C
330
52C
100
AcDbEntity
  8
Simboli(ISO)
 62
    96
100
AcDbMText
 10
127.1130530408996
 20
37.43473480983361
 30
0.0
 40
2.489199936389923
 41
31.99999999999999
 71
     1
 72
     1
  1
\fArial|b0|i0;\H2.4892;Verificato
  7
Corrente-ISO
 73
     1
 44
1.0
1001
ACAD
1000
MTEXTBEGIN
1070
    73
1070
     1
1070
    44
1040
1.0
1070
    74
1070
     0
1000
MTEXTEND
  0
MTEXT
  5
59D
330
52C
100
AcDbEntity
  8
Simboli(ISO)
 62
    96
100
AcDbMText
 10
127.0565265204498
 20
29.43473480983361
 30
0.0
 40
2.489199936389923
 41
31.99999999999999
 71
     1
 72
     1
  1
\fArial|b0|i0;\H2.4892;Approvato
  7
Corrente-ISO
 73
     1
 44
1.0
1001
ACAD
1000
MTEXTBEGIN
1070
    73
1070
     1
1070
    44
1040
1.0
1070
    74
1070
     0
1000
MTEXTEND
  0
MTEXT
  5
59E
330
52C
100
AcDbEntity
  8
Simboli(ISO)
 62
     7
100
AcDbMText
 10
33.90115953460973
 20
31.79652138804769
 30
0.0
 40
3.50519984960556
 41
58.00000000000001
 71
     1
 72
     1
  1
\fArial Black|b1|i0;\H3.5052;Fratelli Comunello 
  7
Corrente-ISO
 73
     1
 44
1.0
1001
ACAD
1000
MTEXTBEGIN
1070
    73
1070
     1
1070
    44
1040
1.0
1070
    74
1070
     0
1000
MTEXTEND
  0
MTEXT
  5
59F
330
52C
100
AcDbEntity
  8
Simboli(ISO)
 62
     7
100
AcDbMText
 10
83.87549784754645
 20
30.17629441918698
 30
0.0
 40
2.006599903106689
 41
8.000000000000007
 71
     1
 72
     1
  1
\fArial Black|b1|i0;\H2.0066;S.p.A
  7
Corrente-ISO
 73
     1
 44
1.0
1001
ACAD
1000
MTEXTBEGIN
1070
    73
1070
     1
1070
    44
1040
1.0
1070
    74
1070
     0
1000
MTEXTEND
  0
MTEXT
  5
5A0
330
52C
100
AcDbEntity
  8
Simboli(ISO)
 62
     7
100
AcDbMText
 10
34.0
 20
24.5
 30
0.0
 40
2.489199936389923
 41
61.00000000000001
 71
     1
 72
     1
  1
\fEuroRoman|b0|i0;\W1.75;\H2.4892;Accessories for fittings
  7
Corrente-ISO
 73
     1
 44
1.0
1001
ACAD
1000
MTEXTBEGIN
1070
    73
1070
     1
1070
    44
1040
1.0
1070
    74
1070
     0
1000
MTEXTEND
  0
MTEXT
  5
5A1
102
{ACAD_XDICTIONARY
360
9D3
102
}
330
52C
100
AcDbEntity
  8
Simboli(ISO)
 62
     7
100
AcDbMText
 10
99.38145982981417
 20
35.34883259221208
 30
0.0
 40
2.006599903106689
 41
27.99999999999999
 71
     1
 72
     1
  1
\fArial|b0|i0;\H2.0066;Via Cassola , 64\P36027 Ros\U+00E0 (VI)\PITALY\PTel.0424/585111\PFax.0424/533417\Pwww.comunello.com
  7
Corrente-ISO
 73
     2
 44
0.9442214965820312
1001
ACAD
1000
MTEXTBEGIN
1070
    73
1070
     2
1070
    44
1040
0.9442214965820312
1070
    74
1070
     0
1000
MTEXTEND
  0
MTEXT
  5
5A2
330
52C
100
AcDbEntity
  8
Simboli(ISO)
 62
     7
100
AcDbMText
 10
105.0
 20
12.1031239376365
 30
0.0
 40
2.006599903106689
 41
190.0
 71
     5
 72
     1
  1
\fArial Black|b1|i0;\W0.75;\H2.0066;La Fratelli Comunello S.p.A. si riserva a termini di legge la proprieta' del presente disegno con divieto di riprodurlo o comunicarlo a terzi senza sua autorizzazione
  7
Corrente-ISO
 73
     1
 44
1.0
1001
ACAD
1000
MTEXTBEGIN
1070
    73
1070
     1
1070
    44
1040
1.0
1070
    74
1070
     0
1000
MTEXTEND
  0
MTEXT
  5
5A3
330
52C
100
AcDbEntity
  8
Simboli(ISO)
 62
    96
100
AcDbMText
 10
127.0
 20
21.49126132885024
 30
0.0
 40
2.489199936389923
 41
14.0
 71
     1
 72
     1
  1
\fArial|b0|i0;\H2.4892;Nr.Art.
  7
Corrente-ISO
 73
     1
 44
1.0
1001
ACAD
1000
MTEXTBEGIN
1070
    73
1070
     1
1070
    44
1040
1.0
1070
    74
1070
     0
1000
MTEXTEND
  0
MTEXT
  5
5A4
330
52C
100
AcDbEntity
  8
Simboli(ISO)
 62
    96
100
AcDbMText
 10
160.1920425734282
 20
45.54306374702739
 30
0.0
 40
2.489199936389923
 41
13.99999999999998
 71
     1
 72
     1
  1
\fArial|b0|i0;\H2.4892;Data
  7
Corrente-ISO
 73
     1
 44
1.0
1001
ACAD
1000
MTEXTBEGIN
1070
    73
1070
     1
1070
    44
1040
1.0
1070
    74
1070
     0
1000
MTEXTEND
  0
MTEXT
  5
5A5
330
52C
100
AcDbEntity
  8
Simboli(ISO)
 62
    96
100
AcDbMText
 10
160.145574392169
 20
37.49970139293061
 30
0.0
 40
2.489199936389923
 41
13.50000000000001
 71
     1
 72
     1
  1
\fArial|b0|i0;\H2.4892;Data
  7
Corrente-ISO
 73
     1
 44
1.0
1001
ACAD
1000
MTEXTBEGIN
1070
    73
1070
     1
1070
    44
1040
1.0
1070
    74
1070
     0
1000
MTEXTEND
  0
MTEXT
  5
5A6
330
52C
100
AcDbEntity
  8
Simboli(ISO)
 62
    96
100
AcDbMText
 10
160.1269413643238
 20
29.66759768010355
 30
0.0
 40
2.489199936389923
 41
11.99999999999999
 71
     1
 72
     1
  1
\fArial|b0|i0;\H2.4892;Data
  7
Corrente-ISO
 73
     1
 44
1.0
1001
ACAD
1000
MTEXTBEGIN
1070
    73
1070
     1
1070
    44
1040
1.0
1070
    74
1070
     0
1000
MTEXTEND
  0
MTEXT
  5
5A7
330
52C
100
AcDbEntity
  8
Simboli(ISO)
 62
    96
100
AcDbMText
 10
188.433042920287
 20
44.22190362458245
 30
0.0
 40
2.489199936389923
 41
21.64389610290527
 71
     5
 72
     1
  1
\fArial|b0|i0;\H2.4892;Attrezzatura 1
  7
Corrente-ISO
 73
     1
 44
1.0
1001
ACAD
1000
MTEXTBEGIN
1070
    73
1070
     1
1070
    44
1040
1.0
1070
    74
1070
     0
1000
MTEXTEND
  0
MTEXT
  5
5A8
330
52C
100
AcDbEntity
  8
Simboli(ISO)
 62
    96
100
AcDbMText
 10
188.0837249836041
 20
36.34533462143185
 30
0.0
 40
2.489199936389923
 41
20.54728269577026
 71
     5
 72
     1
  1
\fArial|b0|i0;\W0.95;\H2.4892;Attrezzatura 2
  7
Corrente-ISO
 73
     1
 44
1.0
1001
ACAD
1000
MTEXTBEGIN
1070
    73
1070
     1
1070
    44
1040
1.0
1070
    74
1070
     0
1000
MTEXTEND
  0
MTEXT
  5
5A9
330
52C
100
AcDbEntity
  8
Simboli(ISO)
 62
    96
100
AcDbMText
 10
188.3141272195963
 20
28.3675383381331
 30
0.0
 40
2.489199936389923
 41
21.64389610290527
 71
     5
 72
     1
  1
\fArial|b0|i0;\H2.4892;Attrezzatura 3
  7
Corrente-ISO
 73
     1
 44
1.0
1001
ACAD
1000
MTEXTBEGIN
1070
    73
1070
     1
1070
    44
1040
1.0
1070
    74
1070
     0
1000
MTEXTEND
  0
MTEXT
  5
5AA
330
52C
100
AcDbEntity
  8
Simboli(ISO)
 62
     7
100
AcDbMText
 10
11.5
 20
50.09709167610179
 30
0.0
 40
2.489199936389923
 41
43.0
 71
     1
 72
     1
  1
\fArial|b0|i0;\H2.4892;UNI EN 22768-m
  7
Corrente-ISO
 73
     1
 44
1.0
1001
ACAD
1000
MTEXTBEGIN
1070
    73
1070
     1
1070
    44
1040
1.0
1070
    74
1070
     0
1000
MTEXTEND
  0
MTEXT
  5
5AB
330
52C
100
AcDbEntity
  8
Simboli(ISO)
 62
     7
100
AcDbMText
 10
93.43312134410579
 20
31.15001179156206
 30
0.0
 40
1.49859994649887
 41
0.0
 71
     1
 72
     1
  1
\fArial|b0|i0;\H1.4986;R
  7
Corrente-ISO
 73
     1
 44
1.0
1001
ACAD
1000
MTEXTBEGIN
1070
    73
1070
     1
1070
    44
1040
1.0
1070
    74
1070
     0
1000
MTEXTEND
  0
ATTDEF
  5
5AD
102
{ACAD_XDICTIONARY
360
7E4
102
}
330
52C
100
AcDbEntity
  8
Simboli(ISO)
 62
     7
100
AcDbText
 10
10.87407422163314
 20
64.45781237692007
 30
0.0
 40
2.006599903106689
  1
STAFFA PER INCONTRO MINI
  7
Stile testo6
100
AcDbAttributeDefinition
  3
Denominazione  1
  2
Denominazione__1_001
 70
     0
  0
ATTDEF
  5
5AE
102
{ACAD_XDICTIONARY
360
7E7
102
}
330
52C
100
AcDbEntity
  8
Simboli(ISO)
 62
     7
100
AcDbText
 10
11.0
 20
60.99340009689331
 30
0.0
 40
2.006599903106689
  1

  7
Stile testo6
 11
11.0
 21
63.0
 31
0.0
100
AcDbAttributeDefinition
  3
Denominazione 2
  2
Denominazione_2
 70
     0
 74
     3
  0
ATTDEF
  5
5B0
102
{ACAD_XDICTIONARY
360
7EA
102
}
330
52C
100
AcDbEntity
  8
Simboli(ISO)
 62
     7
100
AcDbText
 10
88.92395485928449
 20
61.74740007519723
 30
0.0
 40
3.50519984960556
  1
CG-15-M
 41
0.75
  7
Stile testo135
100
AcDbAttributeDefinition
  3
CODICE DISEGNO
  2
CODICE_DISEGNO_001
 70
     0
  0
ATTDEF
  5
5B2
102
{ACAD_XDICTIONARY
360
7ED
102
}
330
52C
100
AcDbEntity
  8
Simboli(ISO)
 62
     7
100
AcDbText
 10
144.75
 20
64.24302410113217
 30
0.0
 40
2.006599903106689
  1

  7
Stile testo6
 72
     1
 11
144.75
 21
65.24632405268551
 31
0.0
100
AcDbAttributeDefinition
  3
Materiale 1
  2
Materiale_1
 70
     0
 74
     2
  0
ATTDEF
  5
5B3
102
{ACAD_XDICTIONARY
360
7F0
102
}
330
52C
100
AcDbEntity
  8
Simboli(ISO)
 62
     7
100
AcDbText
 10
144.809961390817
 20
60.49670004844665
 30
0.0
 40
2.006599903106689
  1

  7
Stile testo6
 72
     1
 11
144.809961390817
 21
61.5
 31
0.0
100
AcDbAttributeDefinition
  3
Materiale 2
  2
Materiale_2
 70
     0
 74
     2
  0
ATTDEF
  5
5B4
102
{ACAD_XDICTIONARY
360
7F3
102
}
330
52C
100
AcDbEntity
  8
Simboli(ISO)
 62
     7
100
AcDbText
 10
188.5
 20
62.49670004844666
 30
0.0
 40
2.006599903106689
  1

  7
Stile testo6
 72
     1
 11
188.5
 21
63.5
 31
0.0
100
AcDbAttributeDefinition
  3
CODICE MATERIALE
  2
CODICE_MATERIALE
 70
     0
 74
     2
  0
ATTDEF
  5
5B5
102
{ACAD_XDICTIONARY
360
7F6
102
}
330
52C
100
AcDbEntity
  8
Simboli(ISO)
 62
     7
100
AcDbText
 10
97.05039695754834
 20
47.24746089643153
 30
0.0
 40
2.489199936389923
  1

  7
Stile testo15
 72
     1
 11
97.05039695754834
 21
48.4920608646265
 31
0.0
100
AcDbAttributeDefinition
  3
PESO UNITARIO KG
  2
PESO_UNITARIO_KG
 70
     0
 74
     2
  0
ATTDEF
  5
5B6
102
{ACAD_XDICTIONARY
360
7F9
102
}
330
52C
100
AcDbEntity
  8
Simboli(ISO)
 62
     7
100
AcDbText
 10
132.6521050609213
 20
50.99169272765512
 30
0.0
 40
2.489199936389923
  1

  7
Stile testo15
 11
132.6521050609213
 21
53.48089266404504
 31
0.0
100
AcDbAttributeDefinition
  3
TRATTAMENTO 1
  2
TRATTAMENTO_1
 70
     0
 74
     3
  0
ATTDEF
  5
5B7
102
{ACAD_XDICTIONARY
360
7FC
102
}
330
52C
100
AcDbEntity
  8
Simboli(ISO)
 62
     7
100
AcDbText
 10
113.0632687693352
 20
47.49849971798101
 30
0.0
 40
2.489199936389923
  1

  7
Stile testo15
 11
113.0632687693352
 21
49.98769965437094
 31
0.0
100
AcDbAttributeDefinition
  3
TRATTAMENTO 2
  2
TRATTAMENTO_2
 70
     0
 74
     3
  0
ATTDEF
  5
5B8
102
{ACAD_XDICTIONARY
360
7FF
102
}
330
52C
100
AcDbEntity
  8
Simboli(ISO)
 62
     7
100
AcDbText
 10
188.5523258958931
 20
47.38184462506182
 30
0.0
 40
2.489199936389923
  1

  7
Stile testo15
 72
     1
 11
188.5523258958931
 21
48.62644459325678
 31
0.0
100
AcDbAttributeDefinition
  3
COEFFICIENTE D'IMPEGO
  2
COEFFICIENTE_D'IMPEGO
 70
     0
 74
     2
  0
ATTDEF
  5
5B9
102
{ACAD_XDICTIONARY
360
802
102
}
330
52C
100
AcDbEntity
  8
Simboli(ISO)
 62
     7
100
AcDbText
 10
93.76919517762665
 20
39.75115514787532
 30
0.0
 40
2.489199936389923
  1
1 : 2
  7
Stile testo15
100
AcDbAttributeDefinition
  3
SCALA
  2
SCALA_001
 70
     0
  0
ATTDEF
  5
5BA
102
{ACAD_XDICTIONARY
360
805
102
}
330
52C
100
AcDbEntity
  8
Simboli(ISO)
 62
     7
100
AcDbText
 10
116.6719681659213
 20
39.15919118908226
 30
0.0
 40
2.489199936389923
  1
A 4
  7
Stile testo15
100
AcDbAttributeDefinition
  3
FOGLIO
  2
FOGLIO_001
 70
     0
  0
ATTDEF
  5
5BB
102
{ACAD_XDICTIONARY
360
808
102
}
330
52C
100
AcDbEntity
  8
Simboli(ISO)
 62
     7
100
AcDbText
 10
127.2419110570728
 20
38.96665327074095
 30
0.0
 40
2.489199936389923
  1
MALLOGGI F.
  7
Stile testo15
100
AcDbAttributeDefinition
  3
DISEGNATO
  2
DISEGNATO_001
 70
     0
  0
ATTDEF
  5
5BC
102
{ACAD_XDICTIONARY
360
80B
102
}
330
52C
100
AcDbEntity
  8
Simboli(ISO)
 62
     7
100
AcDbText
 10
161.3622513356305
 20
39.25540003180504
 30
0.0
 40
2.489199936389923
  1
12/09/05
  7
Stile testo15
100
AcDbAttributeDefinition
  3
DATA
  2
DATA_001
 70
     0
  0
ATTDEF
  5
5BD
102
{ACAD_XDICTIONARY
360
80E
102
}
330
52C
100
AcDbEntity
  8
Simboli(ISO)
 62
     7
100
AcDbText
 10
168.25
 20
31.50540003180504
 30
0.0
 40
2.489199936389923
  1

  7
Stile testo15
 72
     1
 11
168.25
 21
32.75
 31
0.0
100
AcDbAttributeDefinition
  3
DATA
  2
DATA
 70
     0
 74
     2
  0
ATTDEF
  5
5BE
102
{ACAD_XDICTIONARY
360
811
102
}
330
52C
100
AcDbEntity
  8
Simboli(ISO)
 62
     7
100
AcDbText
 10
168.25
 20
23.50540003180504
 30
0.0
 40
2.489199936389923
  1

  7
Stile testo15
 72
     1
 11
168.25
 21
24.75
 31
0.0
100
AcDbAttributeDefinition
  3
DATA
  2
DATA
 70
     0
 74
     2
  0
ATTDEF
  5
5BF
102
{ACAD_XDICTIONARY
360
814
102
}
330
52C
100
AcDbEntity
  8
Simboli(ISO)
 62
     7
100
AcDbText
 10
137.6426382218469
 20
19.00740100265562
 30
0.0
 40
2.489199936389923
  1
CG-15-M
  7
Stile testo15
100
AcDbAttributeDefinition
  3
NUMERO ARTICOLO
  2
NUMERO_ARTICOLO_001
 70
     0
  0
ATTDEF
  5
5C0
102
{ACAD_XDICTIONARY
360
817
102
}
330
52C
100
AcDbEntity
  8
Simboli(ISO)
 62
     7
100
AcDbText
 10
127.1848152468796
 20
15.15058891438324
 30
0.0
 40
2.489199936389923
  1

  7
Stile testo15
 11
127.1848152468796
 21
17.63978885077316
 31
0.0
100
AcDbAttributeDefinition
  3
NUMERO ARTICOLO
  2
NUMERO_ARTICOLO
 70
     0
 74
     3
  0
ATTDEF
  5
5C1
102
{ACAD_XDICTIONARY
360
81A
102
}
330
52C
100
AcDbEntity
  8
Simboli(ISO)
 62
     7
100
AcDbText
 10
188.5
 20
39.25540003180504
 30
0.0
 40
2.489199936389923
  1

  7
Stile testo15
 72
     1
 11
188.5
 21
40.5
 31
0.0
100
AcDbAttributeDefinition
  3
ATTREZZAT. 1
  2
ATTREZZAT._1
 70
     0
 74
     2
  0
ATTDEF
  5
5C2
102
{ACAD_XDICTIONARY
360
81D
102
}
330
52C
100
AcDbEntity
  8
Simboli(ISO)
 62
     7
100
AcDbText
 10
188.5
 20
31.25540003180504
 30
0.0
 40
2.489199936389923
  1

  7
Stile testo15
 72
     1
 11
188.5
 21
32.5
 31
0.0
100
AcDbAttributeDefinition
  3
ATTREZZAT.2
  2
ATTREZZAT.2
 70
     0
 74
     2
  0
ATTDEF
  5
5C3
102
{ACAD_XDICTIONARY
360
820
102
}
330
52C
100
AcDbEntity
  8
Simboli(ISO)
 62
     7
100
AcDbText
 10
188.5
 20
23.25540003180504
 30
0.0
 40
2.489199936389923
  1

  7
Stile testo15
 72
     1
 11
188.5
 21
24.5
 31
0.0
100
AcDbAttributeDefinition
  3
ATTREZZAT.3
  2
ATTREZZAT.3
 70
     0
 74
     2
  0
ATTDEF
  5
5C4
102
{ACAD_XDICTIONARY
360
823
102
}
330
52C
100
AcDbEntity
  8
Simboli(ISO)
 62
     7
100
AcDbText
 10
22.0
 20
39.75540003180504
 30
0.0
 40
2.489199936389923
  1

  7
Stile testo15
 72
     1
 11
22.0
 21
41.0
 31
0.0
100
AcDbAttributeDefinition
  3
SOSTITUISCE IL
  2
SOSTITUISCE_IL
 70
     0
 74
     2
  0
ATTDEF
  5
5C5
102
{ACAD_XDICTIONARY
360
826
102
}
330
52C
100
AcDbEntity
  8
Simboli(ISO)
 62
     7
100
AcDbText
 10
46.5
 20
39.75540003180504
 30
0.0
 40
2.489199936389923
  1

  7
Stile testo15
 72
     1
 11
46.5
 21
41.0
 31
0.0
100
AcDbAttributeDefinition
  3
SOSTITUITO DAL
  2
SOSTITUITO_DAL
 70
     0
 74
     2
  0
ENDBLK
  5
52E
330
52C
100
AcDbEntity
  8
0
100
AcDbBlockEnd
  0
BLOCK
  5
5E1
330
5E0
100
AcDbEntity
  8
0
100
AcDbBlockBegin
  2
Elenco parti
 70
     0
 10
0.0
 20
0.0
 30
0.0
  3
Elenco parti
  1

  0
LINE
  5
5E3
330
5E0
100
AcDbEntity
  8
Simboli(ISO)
100
AcDbLine
 10
194.4214014604964
 20
117.6271964752813
 30
0.0
 11
17.16306812716308
 21
117.6271964752813
 31
0.0
  0
LINE
  5
5E4
330
5E0
100
AcDbEntity
  8
Simboli(ISO)
100
AcDbLine
 10
194.4214014604964
 20
117.6271964752813
 30
0.0
 11
194.4214014604964
 21
111.2974707895657
 31
0.0
  0
LINE
  5
5E5
330
5E0
100
AcDbEntity
  8
Simboli(ISO)
100
AcDbLine
 10
17.16306812716308
 20
117.6271964752813
 30
0.0
 11
17.16306812716308
 21
111.2974707895657
 31
0.0
  0
MTEXT
  5
5E6
330
5E0
100
AcDbEntity
  8
Simboli(ISO)
100
AcDbMText
 10
93.29065211274675
 20
111.7412968853255
 30
0.0
 40
3.499999940395355
 41
0.0
 71
     7
 72
     1
  1
Elenco parti
  7
Bordo_1
 73
     1
 44
1.0
1001
ACAD
1000
MTEXTBEGIN
1070
    73
1070
     1
1070
    44
1040
1.0
1070
    74
1070
     0
1000
MTEXTEND
  0
LINE
  5
5E7
330
5E0
100
AcDbEntity
  8
Simboli(ISO)
100
AcDbLine
 10
194.4214014604964
 20
111.2974707895657
 30
0.0
 11
17.16306812716308
 21
111.2974707895657
 31
0.0
  0
LINE
  5
5E8
330
5E0
100
AcDbEntity
  8
Simboli(ISO)
100
AcDbLine
 10
194.4214014604964
 20
111.2974707895657
 30
0.0
 11
194.4214014604964
 21
104.96774510385
 31
0.0
  0
MTEXT
  5
5E9
330
5E0
100
AcDbEntity
  8
Simboli(ISO)
100
AcDbMText
 10
116.9753358351809
 20
106.2932405905565
 30
0.0
 40
3.499999940395355
 41
0.0
 71
     7
 72
     1
  1
DESCRIZIONE
  7
Bordo_1
 73
     1
 44
1.0
1001
ACAD
1000
MTEXTBEGIN
1070
    73
1070
     1
1070
    44
1040
1.0
1070
    74
1070
     0
1000
MTEXTEND
  0
LINE
  5
5EA
330
5E0
100
AcDbEntity
  8
Simboli(ISO)
100
AcDbLine
 10
72.1630681271631
 20
111.2974707895657
 30
0.0
 11
72.1630681271631
 21
104.96774510385
 31
0.0
  0
MTEXT
  5
5EB
330
5E0
100
AcDbEntity
  8
Simboli(ISO)
100
AcDbMText
 10
45.4075787484488
 20
106.2932405905565
 30
0.0
 40
3.499999940395355
 41
0.0
 71
     7
 72
     1
  1
CODICE
  7
Bordo_1
 73
     1
 44
1.0
1001
ACAD
1000
MTEXTBEGIN
1070
    73
1070
     1
1070
    44
1040
1.0
1070
    74
1070
     0
1000
MTEXTEND
  0
LINE
  5
5EC
330
5E0
100
AcDbEntity
  8
Simboli(ISO)
100
AcDbLine
 10
37.1630681271631
 20
111.2974707895657
 30
0.0
 11
37.1630681271631
 21
104.96774510385
 31
0.0
  0
MTEXT
  5
5ED
330
5E0
100
AcDbEntity
  8
Simboli(ISO)
100
AcDbMText
 10
28.30938284448519
 20
106.0798259550472
 30
0.0
 40
3.499999940395355
 41
0.0
 71
     7
 72
     1
  1
QT.
  7
Bordo_1
 73
     1
 44
1.0
1001
ACAD
1000
MTEXTBEGIN
1070
    73
1070
     1
1070
    44
1040
1.0
1070
    74
1070
     0
1000
MTEXTEND
  0
LINE
  5
5EE
330
5E0
100
AcDbEntity
  8
Simboli(ISO)
100
AcDbLine
 10
27.1630681271631
 20
111.2974707895657
 30
0.0
 11
27.1630681271631
 21
104.96774510385
 31
0.0
  0
MTEXT
  5
5EF
330
5E0
100
AcDbEntity
  8
Simboli(ISO)
100
AcDbMText
 10
18.89967132864846
 20
106.3826078274985
 30
0.0
 40
3.499999940395355
 41
0.0
 71
     7
 72
     1
  1
EL.
  7
Bordo_1
 73
     1
 44
1.0
1001
ACAD
1000
MTEXTBEGIN
1070
    73
1070
     1
1070
    44
1040
1.0
1070
    74
1070
     0
1000
MTEXTEND
  0
LINE
  5
5F0
330
5E0
100
AcDbEntity
  8
Simboli(ISO)
100
AcDbLine
 10
17.16306812716309
 20
111.2974707895657
 30
0.0
 11
17.16306812716309
 21
104.96774510385
 31
0.0
  0
MTEXT
  5
5F1
330
5E0
100
AcDbEntity
  8
Simboli(ISO)
100
AcDbMText
 10
73.45786913113027
 20
99.96351490484085
 30
0.0
 40
3.499999940395355
 41
0.0
 71
     7
 72
     1
  1
DADO M8
  7
Bordo_1
 73
     1
 44
1.0
1001
ACAD
1000
MTEXTBEGIN
1070
    73
1070
     1
1070
    44
1040
1.0
1070
    74
1070
     0
1000
MTEXTEND
  0
MTEXT
  5
5F2
330
5E0
100
AcDbEntity
  8
Simboli(ISO)
100
AcDbMText
 10
38.3066687466322
 20
99.98752395377961
 30
0.0
 40
3.499999940395355
 41
0.0
 71
     7
 72
     1
  1
71200708
  7
Bordo_1
 73
     1
 44
1.0
1001
ACAD
1000
MTEXTBEGIN
1070
    73
1070
     1
1070
    44
1040
1.0
1070
    74
1070
     0
1000
MTEXTEND
  0
MTEXT
  5
5F3
330
5E0
100
AcDbEntity
  8
Simboli(ISO)
100
AcDbMText
 10
30.95228397118321
 20
100.046212978079
 30
0.0
 40
3.499999940395355
 41
0.0
 71
     7
 72
     1
  1
2
  7
Bordo_1
 73
     1
 44
1.0
1001
ACAD
1000
MTEXTBEGIN
1070
    73
1070
     1
1070
    44
1040
1.0
1070
    74
1070
     0
1000
MTEXTEND
  0
MTEXT
  5
5F4
330
5E0
100
AcDbEntity
  8
Simboli(ISO)
100
AcDbMText
 10
21.01948414207123
 20
99.98752395377961
 30
0.0
 40
3.499999940395355
 41
0.0
 71
     7
 72
     1
  1
3
  7
Bordo_1
 73
     1
 44
1.0
1001
ACAD
1000
MTEXTBEGIN
1070
    73
1070
     1
1070
    44
1040
1.0
1070
    74
1070
     0
1000
MTEXTEND
  0
LINE
  5
5F5
330
5E0
100
AcDbEntity
  8
Simboli(ISO)
100
AcDbLine
 10
194.4214014604964
 20
104.96774510385
 30
0.0
 11
17.16306812716308
 21
104.96774510385
 31
0.0
  0
MTEXT
  5
5F6
330
5E0
100
AcDbEntity
  8
Simboli(ISO)
100
AcDbMText
 10
73.08546818412577
 20
93.65779826806392
 30
0.0
 40
3.499999940395355
 41
0.0
 71
     7
 72
     1
  1
VITE M8
  7
Bordo_1
 73
     1
 44
1.0
1001
ACAD
1000
MTEXTBEGIN
1070
    73
1070
     1
1070
    44
1040
1.0
1070
    74
1070
     0
1000
MTEXTEND
  0
MTEXT
  5
5F7
330
5E0
100
AcDbEntity
  8
Simboli(ISO)
100
AcDbMText
 10
38.3066687466322
 20
93.65779826806392
 30
0.0
 40
3.499999940395355
 41
0.0
 71
     7
 72
     1
  1
71104040
  7
Bordo_1
 73
     1
 44
1.0
1001
ACAD
1000
MTEXTBEGIN
1070
    73
1070
     1
1070
    44
1040
1.0
1070
    74
1070
     0
1000
MTEXTEND
  0
MTEXT
  5
5F8
330
5E0
100
AcDbEntity
  8
Simboli(ISO)
100
AcDbMText
 10
30.95228397118321
 20
93.7164872923633
 30
0.0
 40
3.499999940395355
 41
0.0
 71
     7
 72
     1
  1
2
  7
Bordo_1
 73
     1
 44
1.0
1001
ACAD
1000
MTEXTBEGIN
1070
    73
1070
     1
1070
    44
1040
1.0
1070
    74
1070
     0
1000
MTEXTEND
  0
MTEXT
  5
5F9
330
5E0
100
AcDbEntity
  8
Simboli(ISO)
100
AcDbMText
 10
20.86828375757317
 20
93.72315645606722
 30
0.0
 40
3.499999940395355
 41
0.0
 71
     7
 72
     1
  1
4
  7
Bordo_1
 73
     1
 44
1.0
1001
ACAD
1000
MTEXTBEGIN
1070
    73
1070
     1
1070
    44
1040
1.0
1070
    74
1070
     0
1000
MTEXTEND
  0
LINE
  5
5FA
330
5E0
100
AcDbEntity
  8
Simboli(ISO)
100
AcDbLine
 10
194.4214014604964
 20
98.63801941813434
 30
0.0
 11
17.16306812716308
 21
98.63801941813434
 31
0.0
  0
MTEXT
  5
5FB
330
5E0
100
AcDbEntity
  8
Simboli(ISO)
100
AcDbMText
 10
73.46626915249126
 20
87.30406353340951
 30
0.0
 40
3.499999940395355
 41
0.0
 71
     7
 72
     1
  1
ROSETTA M8 6592
  7
Bordo_1
 73
     1
 44
1.0
1001
ACAD
1000
MTEXTBEGIN
1070
    73
1070
     1
1070
    44
1040
1.0
1070
    74
1070
     0
1000
MTEXTEND
  0
MTEXT
  5
5FC
330
5E0
100
AcDbEntity
  8
Simboli(ISO)
100
AcDbMText
 10
38.3066687466322
 20
87.32807258234826
 30
0.0
 40
3.499999940395355
 41
0.0
 71
     7
 72
     1
  1
71300106
  7
Bordo_1
 73
     1
 44
1.0
1001
ACAD
1000
MTEXTBEGIN
1070
    73
1070
     1
1070
    44
1040
1.0
1070
    74
1070
     0
1000
MTEXTEND
  0
MTEXT
  5
5FD
330
5E0
100
AcDbEntity
  8
Simboli(ISO)
100
AcDbMText
 10
30.86828375757317
 20
87.39343077035156
 30
0.0
 40
3.499999940395355
 41
0.0
 71
     7
 72
     1
  1
4
  7
Bordo_1
 73
     1
 44
1.0
1001
ACAD
1000
MTEXTBEGIN
1070
    73
1070
     1
1070
    44
1040
1.0
1070
    74
1070
     0
1000
MTEXTEND
  0
MTEXT
  5
5FE
330
5E0
100
AcDbEntity
  8
Simboli(ISO)
100
AcDbMText
 10
20.99708408510856
 20
87.32807258234826
 30
0.0
 40
3.499999940395355
 41
0.0
 71
     7
 72
     1
  1
6
  7
Bordo_1
 73
     1
 44
1.0
1001
ACAD
1000
MTEXTBEGIN
1070
    73
1070
     1
1070
    44
1040
1.0
1070
    74
1070
     0
1000
MTEXTEND
  0
LINE
  5
5FF
330
5E0
100
AcDbEntity
  8
Simboli(ISO)
100
AcDbLine
 10
194.4214014604964
 20
92.30829373241867
 30
0.0
 11
17.16306812716308
 21
92.30829373241867
 31
0.0
  0
MTEXT
  5
600
330
5E0
100
AcDbEntity
  8
Simboli(ISO)
100
AcDbMText
 10
73.06306812716309
 20
81.06370523364748
 30
0.0
 40
3.499999940395355
 41
0.0
 71
     7
 72
     1
  1
 
  7
Bordo_1
 73
     1
 44
1.0
1001
ACAD
1000
MTEXTBEGIN
1070
    73
1070
     1
1070
    44
1040
1.0
1070
    74
1070
     0
1000
MTEXTEND
  0
MTEXT
  5
601
330
5E0
100
AcDbEntity
  8
Simboli(ISO)
100
AcDbMText
 10
38.45786913113026
 20
81.00768374071922
 30
0.0
 40
3.499999940395355
 41
0.0
 71
     7
 72
     1
  1
Parte4
  7
Bordo_1
 73
     1
 44
1.0
1001
ACAD
1000
MTEXTBEGIN
1070
    73
1070
     1
1070
    44
1040
1.0
1070
    74
1070
     0
1000
MTEXTEND
  0
MTEXT
  5
602
330
5E0
100
AcDbEntity
  8
Simboli(ISO)
100
AcDbMText
 10
31.36108501075205
 20
81.05703592093195
 30
0.0
 40
3.499999940395355
 41
0.0
 71
     7
 72
     1
  1
1
  7
Bordo_1
 73
     1
 44
1.0
1001
ACAD
1000
MTEXTBEGIN
1070
    73
1070
     1
1070
    44
1040
1.0
1070
    74
1070
     0
1000
MTEXTEND
  0
MTEXT
  5
603
330
5E0
100
AcDbEntity
  8
Simboli(ISO)
100
AcDbMText
 10
20.86828375757317
 20
81.06370508463587
 30
0.0
 40
3.499999940395355
 41
0.0
 71
     7
 72
     1
  1
4
  7
Bordo_1
 73
     1
 44
1.0
1001
ACAD
1000
MTEXTBEGIN
1070
    73
1070
     1
1070
    44
1040
1.0
1070
    74
1070
     0
1000
MTEXTEND
  0
LINE
  5
604
330
5E0
100
AcDbEntity
  8
Simboli(ISO)
100
AcDbLine
 10
194.4214014604964
 20
85.978568046703
 30
0.0
 11
17.16306812716308
 21
85.978568046703
 31
0.0
  0
MTEXT
  5
605
330
5E0
100
AcDbEntity
  8
Simboli(ISO)
100
AcDbMText
 10
73.06306812716309
 20
74.73397954793182
 30
0.0
 40
3.499999940395355
 41
0.0
 71
     7
 72
     1
  1
 
  7
Bordo_1
 73
     1
 44
1.0
1001
ACAD
1000
MTEXTBEGIN
1070
    73
1070
     1
1070
    44
1040
1.0
1070
    74
1070
     0
1000
MTEXTEND
  0
MTEXT
  5
606
330
5E0
100
AcDbEntity
  8
Simboli(ISO)
100
AcDbMText
 10
38.21146850454083
 20
74.66862121091691
 30
0.0
 40
3.499999940395355
 41
0.0
 71
     7
 72
     1
  1
21504503
  7
Bordo_1
 73
     1
 44
1.0
1001
ACAD
1000
MTEXTBEGIN
1070
    73
1070
     1
1070
    44
1040
1.0
1070
    74
1070
     0
1000
MTEXTEND
  0
MTEXT
  5
607
330
5E0
100
AcDbEntity
  8
Simboli(ISO)
100
AcDbMText
 10
30.86828375757317
 20
74.73397939892021
 30
0.0
 40
3.499999940395355
 41
0.0
 71
     7
 72
     1
  1
4
  7
Bordo_1
 73
     1
 44
1.0
1001
ACAD
1000
MTEXTBEGIN
1070
    73
1070
     1
1070
    44
1040
1.0
1070
    74
1070
     0
1000
MTEXTEND
  0
MTEXT
  5
608
330
5E0
100
AcDbEntity
  8
Simboli(ISO)
100
AcDbMText
 10
21.0166841349509
 20
74.69796576963273
 30
0.0
 40
3.499999940395355
 41
0.0
 71
     7
 72
     1
  1
5
  7
Bordo_1
 73
     1
 44
1.0
1001
ACAD
1000
MTEXTBEGIN
1070
    73
1070
     1
1070
    44
1040
1.0
1070
    74
1070
     0
1000
MTEXTEND
  0
LINE
  5
609
330
5E0
100
AcDbEntity
  8
Simboli(ISO)
100
AcDbLine
 10
194.4214014604964
 20
79.64884236098733
 30
0.0
 11
17.16306812716308
 21
79.64884236098733
 31
0.0
  0
LINE
  5
60A
330
5E0
100
AcDbEntity
  8
Simboli(ISO)
100
AcDbLine
 10
194.4214014604964
 20
73.31911667527165
 30
0.0
 11
17.16306812716308
 21
73.31911667527165
 31
0.0
  0
LINE
  5
60B
330
5E0
100
AcDbEntity
  8
Simboli(ISO)
100
AcDbLine
 10
194.4214014604964
 20
104.96774510385
 30
0.0
 11
194.4214014604964
 21
73.31911667527165
 31
0.0
  0
LINE
  5
60C
330
5E0
100
AcDbEntity
  8
Simboli(ISO)
100
AcDbLine
 10
72.1630681271631
 20
104.96774510385
 30
0.0
 11
72.1630681271631
 21
73.31911667527165
 31
0.0
  0
LINE
  5
60D
330
5E0
100
AcDbEntity
  8
Simboli(ISO)
100
AcDbLine
 10
37.1630681271631
 20
104.96774510385
 30
0.0
 11
37.1630681271631
 21
73.31911667527165
 31
0.0
  0
LINE
  5
60E
330
5E0
100
AcDbEntity
  8
Simboli(ISO)
100
AcDbLine
 10
27.1630681271631
 20
104.96774510385
 30
0.0
 11
27.1630681271631
 21
73.31911667527165
 31
0.0
  0
LINE
  5
60F
330
5E0
100
AcDbEntity
  8
Simboli(ISO)
100
AcDbLine
 10
17.16306812716309
 20
104.96774510385
 30
0.0
 11
17.16306812716309
 21
73.31911667527165
 31
0.0
  0
ENDBLK
  5
5E2
330
5E0
100
AcDbEntity
  8
0
100
AcDbBlockEnd
  0
BLOCK
  5
612
330
611
100
AcDbEntity
  8
0
100
AcDbBlockBegin
  2
Numero di riferimento1
 70
     0
 10
0.0
 20
0.0
 30
0.0
  3
Numero di riferimento1
  1

  0
LINE
  5
614
330
611
100
AcDbEntity
  8
Simboli(ISO)
  6
Continuous
 62
   179
370
    18
100
AcDbLine
 10
272.6548294867394
 20
188.5798435798975
 30
0.0
 11
270.6157794484329
 21
187.1333737595134
 31
0.0
  0
POLYLINE
  5
615
330
611
100
AcDbEntity
  8
Simboli(ISO)
  6
Continuous
 62
   179
370
    18
100
AcDb2dPolyline
 66
     1
 10
0.0
 20
0.0
 30
0.0
 70
   128
  0
VERTEX
  5
616
330
615
100
AcDbEntity
  8
Simboli(ISO)
  6
Continuous
 62
   179
370
    18
100
AcDbVertex
100
AcDb2dVertex
 10
272.3655319213867
 20
188.9876556396484
 30
0.0
  0
VERTEX
  5
617
330
615
100
AcDbEntity
  8
Simboli(ISO)
  6
Continuous
 62
   179
370
    18
100
AcDbVertex
100
AcDb2dVertex
 10
270.6157875061035
 20
187.1333694458008
 30
0.0
  0
VERTEX
  5
619
330
615
100
AcDbEntity
  8
Simboli(ISO)
  6
Continuous
 62
   179
370
    18
100
AcDbVertex
100
AcDb2dVertex
 10
272.9441261291504
 20
188.1720352172851
 30
0.0
  0
VERTEX
  5
61A
330
615
100
AcDbEntity
  8
Simboli(ISO)
  6
Continuous
 62
   179
370
    18
100
AcDbVertex
100
AcDb2dVertex
 10
272.3655319213867
 20
188.9876556396484
 30
0.0
  0
SEQEND
  5
618
330
615
100
AcDbEntity
  8
Simboli(ISO)
  6
Continuous
 62
   179
370
    18
  0
SOLID
  5
61B
330
611
100
AcDbEntity
  8
Simboli(ISO)
 62
   179
100
AcDbTrace
 10
272.3655319213867
 20
188.9876556396484
 30
0.0
 11
270.6157875061035
 21
187.1333694458008
 31
0.0
 12
272.9441261291504
 22
188.1720352172851
 32
0.0
 13
272.3655319213867
 23
188.9876556396484
 33
0.0
  0
LINE
  5
61C
330
611
100
AcDbEntity
  8
Simboli(ISO)
  6
Continuous
 62
   179
370
    18
100
AcDbLine
 10
272.3655355226625
 20
188.9876535875589
 30
0.0
 11
270.6157794484329
 21
187.1333737595134
 31
0.0
  0
LINE
  5
61D
330
611
100
AcDbEntity
  8
Simboli(ISO)
  6
Continuous
 62
   179
370
    18
100
AcDbLine
 10
270.6157794484329
 20
187.1333737595134
 30
0.0
 11
272.9441234508162
 21
188.1720335722363
 31
0.0
  0
LINE
  5
61E
330
611
100
AcDbEntity
  8
Simboli(ISO)
  6
Continuous
 62
   179
370
    18
100
AcDbLine
 10
272.9441234508162
 20
188.1720335722363
 30
0.0
 11
272.3655355226625
 21
188.9876535875589
 31
0.0
  0
LINE
  5
61F
330
611
100
AcDbEntity
  8
Simboli(ISO)
  6
Continuous
 62
   179
370
    18
100
AcDbLine
 10
272.6548294867394
 20
188.5798435798975
 30
0.0
 11
301.9435863426788
 21
209.3568240721831
 31
0.0
  0
CIRCLE
  5
620
330
611
100
AcDbEntity
  8
Simboli(ISO)
100
AcDbCircle
 10
306.209377204505
 20
212.3829085849629
 30
0.0
 40
5.249999910593032
  0
MTEXT
  5
621
330
611
100
AcDbEntity
  8
Simboli(ISO)
100
AcDbMText
 10
306.209377204505
 20
212.4122530971126
 30
0.0
 40
3.499999940395355
 41
0.0
 71
     5
 72
     1
  1
3
  7
Bordo_1
 73
     1
 44
1.0
1001
ACAD
1000
MTEXTBEGIN
1070
    73
1070
     1
1070
    44
1040
1.0
1070
    74
1070
     0
1000
MTEXTEND
  0
ENDBLK
  5
613
330
611
100
AcDbEntity
  8
0
100
AcDbBlockEnd
  0
BLOCK
  5
624
330
623
100
AcDbEntity
  8
0
100
AcDbBlockBegin
  2
Numero di riferimento2
 70
     0
 10
0.0
 20
0.0
 30
0.0
  3
Numero di riferimento2
  1

  0
LINE
  5
626
330
623
100
AcDbEntity
  8
Simboli(ISO)
  6
Continuous
 62
   179
370
    18
100
AcDbLine
 10
273.0803542330973
 20
197.8644626503638
 30
0.0
 11
271.6999557444297
 21
195.7801162270253
 31
0.0
  0
POLYLINE
  5
627
330
623
100
AcDbEntity
  8
Simboli(ISO)
  6
Continuous
 62
   179
370
    18
100
AcDb2dPolyline
 66
     1
 10
0.0
 20
0.0
 30
0.0
 70
   128
  0
VERTEX
  5
628
330
627
100
AcDbEntity
  8
Simboli(ISO)
  6
Continuous
 62
   179
370
    18
100
AcDbVertex
100
AcDb2dVertex
 10
272.6634788513184
 20
198.1405448913574
 30
0.0
  0
VERTEX
  5
629
330
627
100
AcDbEntity
  8
Simboli(ISO)
  6
Continuous
 62
   179
370
    18
100
AcDbVertex
100
AcDb2dVertex
 10
271.6999626159668
 20
195.7801246643066
 30
0.0
  0
VERTEX
  5
62B
330
627
100
AcDbEntity
  8
Simboli(ISO)
  6
Continuous
 62
   179
370
    18
100
AcDbVertex
100
AcDb2dVertex
 10
273.4972190856934
 20
197.5883865356445
 30
0.0
  0
VERTEX
  5
62C
330
627
100
AcDbEntity
  8
Simboli(ISO)
  6
Continuous
 62
   179
370
    18
100
AcDbVertex
100
AcDb2dVertex
 10
272.6634788513184
 20
198.1405448913574
 30
0.0
  0
SEQEND
  5
62A
330
627
100
AcDbEntity
  8
Simboli(ISO)
  6
Continuous
 62
   179
370
    18
  0
SOLID
  5
62D
330
623
100
AcDbEntity
  8
Simboli(ISO)
 62
   179
100
AcDbTrace
 10
272.6634788513184
 20
198.1405448913574
 30
0.0
 11
271.6999626159668
 21
195.7801246643066
 31
0.0
 12
273.4972190856934
 22
197.5883865356445
 32
0.0
 13
272.6634788513184
 23
198.1405448913574
 33
0.0
  0
LINE
  5
62E
330
623
100
AcDbEntity
  8
Simboli(ISO)
  6
Continuous
 62
   179
370
    18
100
AcDbLine
 10
272.6634849484296
 20
198.1405423480973
 30
0.0
 11
271.6999557444297
 21
195.7801162270253
 31
0.0
  0
LINE
  5
62F
330
623
100
AcDbEntity
  8
Simboli(ISO)
  6
Continuous
 62
   179
370
    18
100
AcDbLine
 10
271.6999557444297
 20
195.7801162270253
 30
0.0
 11
273.497223517765
 21
197.5883829526303
 31
0.0
  0
LINE
  5
630
330
623
100
AcDbEntity
  8
Simboli(ISO)
  6
Continuous
 62
   179
370
    18
100
AcDbLine
 10
273.497223517765
 20
197.5883829526303
 30
0.0
 11
272.6634849484296
 21
198.1405423480973
 31
0.0
  0
LINE
  5
631
330
623
100
AcDbEntity
  8
Simboli(ISO)
  6
Continuous
 62
   179
370
    18
100
AcDbLine
 10
273.0803542330973
 20
197.8644626503638
 30
0.0
 11
289.863234294443
 21
223.2059392720536
 31
0.0
  0
CIRCLE
  5
632
330
623
100
AcDbEntity
  8
Simboli(ISO)
100
AcDbCircle
 10
292.7520099655494
 20
227.5678748198895
 30
0.0
 40
5.249999910593032
  0
MTEXT
  5
633
330
623
100
AcDbEntity
  8
Simboli(ISO)
100
AcDbMText
 10
292.7520099655494
 20
227.5678748198895
 30
0.0
 40
3.499999940395355
 41
0.0
 71
     5
 72
     1
  1
4
  7
Bordo_1
 73
     1
 44
1.0
1001
ACAD
1000
MTEXTBEGIN
1070
    73
1070
     1
1070
    44
1040
1.0
1070
    74
1070
     0
1000
MTEXTEND
  0
ENDBLK
  5
625
330
623
100
AcDbEntity
  8
0
100
AcDbBlockEnd
  0
ENDSEC
  0
SECTION
  2
ENTITIES
  0
INSERT
  5
2CA
330
77
100
AcDbEntity
  8
0
100
AcDbBlockReference
  2
Bordi Default Border
 10
0.0
 20
0.0
 30
0.0
 41
2.0
 42
2.0
 43
2.0
  0
SPLINE
  5
635
330
77
100
AcDbEntity
  8
Spigoli visibili(ISO)
100
AcDbSpline
210
0.0
220
0.0
230
1.0
 70
    12
 71
     2
 72
     6
 73
     3
 74
     0
 42
0.0000000001
 43
0.0000000001
 40
0.3807113172039051
 40
0.3807113172039051
 40
0.3807113172039051
 40
0.7614226344078098
 40
0.7614226344078098
 40
0.7614226344078098
 10
96.62479560814288
 20
394.8955096147419
 30
0.0
 41
1.0
 10
98.13312585734056
 20
394.8955096147419
 30
0.0
 41
1.037954849302046
 10
99.87479560814286
 20
395.4760661983426
 30
0.0
 41
1.0
  0
LINE
  5
636
330
77
100
AcDbEntity
  8
Spigoli visibili(ISO)
100
AcDbLine
 10
96.62479560814288
 20
394.8955096147419
 30
0.0
 11
99.87479560814293
 21
394.8955096147419
 31
0.0
  0
SPLINE
  5
637
330
77
100
AcDbEntity
  8
Spigoli visibili(ISO)
100
AcDbSpline
210
0.0
220
0.0
230
1.0
 70
    28
 71
     2
 72
     6
 73
     3
 74
     0
 42
0.0000000001
 43
0.0000000001
 40
0.0
 40
0.0
 40
0.0
 40
0.3807113172039049
 40
0.3807113172039049
 40
0.3807113172039049
 10
99.87479560814287
 20
395.4760661983426
 30
0.0
 41
1.0
 10
99.87479560814287
 20
394.8955096147419
 30
0.0
 41
1.037954849302043
 10
99.87479560814291
 20
394.8955096147419
 30
0.0
 41
1.0
  0
SPLINE
  5
638
330
77
100
AcDbEntity
  8
Spigoli visibili(ISO)
100
AcDbSpline
210
0.0
220
0.0
230
1.0
 70
    12
 71
     2
 72
     6
 73
     3
 74
     0
 42
0.0000000001
 43
0.0000000001
 40
0.3807113172039056
 40
0.3807113172039056
 40
0.3807113172039056
 40
0.7614226344078111
 40
0.7614226344078111
 40
0.7614226344078111
 10
90.12479560814286
 20
394.8955096147419
 30
0.0
 41
1.0
 10
91.63312585734054
 20
394.8955096147419
 30
0.0
 41
1.037954849302078
 10
93.37479560814285
 20
395.4760661983426
 30
0.0
 41
1.0
  0
LINE
  5
639
330
77
100
AcDbEntity
  8
Spigoli visibili(ISO)
100
AcDbLine
 10
90.12479560814282
 20
394.8955096147419
 30
0.0
 11
96.6247956081429
 21
394.8955096147419
 31
0.0
  0
SPLINE
  5
63A
330
77
100
AcDbEntity
  8
Spigoli visibili(ISO)
100
AcDbSpline
210
0.0
220
0.0
230
1.0
 70
    12
 71
     2
 72
     6
 73
     3
 74
     0
 42
0.0000000001
 43
0.0000000001
 40
0.0
 40
0.0
 40
0.0
 40
0.3807113172039051
 40
0.3807113172039051
 40
0.3807113172039051
 10
93.37479560814289
 20
395.4760661983426
 30
0.0
 41
1.0
 10
95.11646535894517
 20
394.8955096147419
 30
0.0
 41
1.037954849302046
 10
96.62479560814288
 20
394.8955096147419
 30
0.0
 41
1.0
  0
SPLINE
  5
63B
330
77
100
AcDbEntity
  8
Spigoli visibili(ISO)
100
AcDbSpline
210
0.0
220
0.0
230
1.0
 70
    28
 71
     2
 72
     6
 73
     3
 74
     0
 42
0.0000000001
 43
0.0000000001
 40
0.3807113172039047
 40
0.3807113172039047
 40
0.3807113172039047
 40
0.7614226344078095
 40
0.7614226344078095
 40
0.7614226344078095
 10
86.87479560814285
 20
394.8955096147419
 30
0.0
 41
1.0
 10
86.87479560814285
 20
394.8955096147419
 30
0.0
 41
1.037954849302053
 10
86.87479560814285
 20
395.4760661983426
 30
0.0
 41
1.0
  0
LINE
  5
63C
330
77
100
AcDbEntity
  8
Spigoli visibili(ISO)
100
AcDbLine
 10
86.87479560814283
 20
394.8955096147419
 30
0.0
 11
90.12479560814284
 21
394.8955096147419
 31
0.0
  0
SPLINE
  5
63D
330
77
100
AcDbEntity
  8
Spigoli visibili(ISO)
100
AcDbSpline
210
0.0
220
0.0
230
1.0
 70
    12
 71
     2
 72
     6
 73
     3
 74
     0
 42
0.0000000001
 43
0.0000000001
 40
0.0
 40
0.0
 40
0.0
 40
0.3807113172039056
 40
0.3807113172039056
 40
0.3807113172039056
 10
86.87479560814287
 20
395.4760661983426
 30
0.0
 41
1.0
 10
88.61646535894516
 20
394.8955096147419
 30
0.0
 41
1.037954849302057
 10
90.12479560814286
 20
394.8955096147419
 30
0.0
 41
1.0
  0
LINE
  5
63E
330
77
100
AcDbEntity
  8
Spigoli visibili(ISO)
100
AcDbLine
 10
86.87479560814285
 20
399.5955096147418
 30
0.0
 11
86.87479560814285
 21
395.4760661983426
 31
0.0
  0
LINE
  5
63F
330
77
100
AcDbEntity
  8
Spigoli visibili(ISO)
100
AcDbLine
 10
93.37479560814285
 20
399.5955096147418
 30
0.0
 11
93.37479560814285
 21
395.4760661983426
 31
0.0
  0
LINE
  5
640
330
77
100
AcDbEntity
  8
Spigoli visibili(ISO)
100
AcDbLine
 10
86.87479560814285
 20
399.5955096147418
 30
0.0
 11
93.37479560814285
 21
399.5955096147418
 31
0.0
  0
LINE
  5
641
330
77
100
AcDbEntity
  8
Spigoli visibili(ISO)
100
AcDbLine
 10
99.87479560814287
 20
399.5955096147418
 30
0.0
 11
99.87479560814287
 21
395.4760661983426
 31
0.0
  0
LINE
  5
642
330
77
100
AcDbEntity
  8
Spigoli visibili(ISO)
100
AcDbLine
 10
93.37479560814285
 20
399.5955096147418
 30
0.0
 11
99.87479560814287
 21
399.5955096147418
 31
0.0
  0
LINE
  5
643
330
77
100
AcDbEntity
  8
Spigoli visibili(ISO)
100
AcDbLine
 10
87.55979560814285
 20
399.5955096147418
 30
0.0
 11
87.55979560814285
 21
400.1956096147418
 31
0.0
  0
LINE
  5
644
330
77
100
AcDbEntity
  8
Spigoli visibili(ISO)
100
AcDbLine
 10
99.18979560814291
 20
399.5955096147418
 30
0.0
 11
99.18979560814291
 21
400.1956096147418
 31
0.0
  0
SPLINE
  5
645
330
77
100
AcDbEntity
  8
Spigoli visibili(ISO)
100
AcDbSpline
210
0.0
220
0.0
230
1.0
 70
    12
 71
     2
 72
     6
 73
     3
 74
     0
 42
0.0000000001
 43
0.0000000001
 40
0.3807113172039051
 40
0.3807113172039051
 40
0.3807113172039051
 40
0.7614226344078098
 40
0.7614226344078098
 40
0.7614226344078098
 10
56.62479560814283
 20
394.8955096147419
 30
0.0
 41
1.0
 10
58.13312585734052
 20
394.8955096147419
 30
0.0
 41
1.037954849302046
 10
59.87479560814279
 20
395.4760661983426
 30
0.0
 41
1.0
  0
LINE
  5
646
330
77
100
AcDbEntity
  8
Spigoli visibili(ISO)
100
AcDbLine
 10
56.62479560814284
 20
394.8955096147419
 30
0.0
 11
59.87479560814286
 21
394.8955096147419
 31
0.0
  0
SPLINE
  5
647
330
77
100
AcDbEntity
  8
Spigoli visibili(ISO)
100
AcDbSpline
210
0.0
220
0.0
230
1.0
 70
    28
 71
     2
 72
     6
 73
     3
 74
     0
 42
0.0000000001
 43
0.0000000001
 40
0.0
 40
0.0
 40
0.0
 40
0.3807113172039049
 40
0.3807113172039049
 40
0.3807113172039049
 10
59.8747956081428
 20
395.4760661983426
 30
0.0
 41
1.0
 10
59.87479560814282
 20
394.8955096147419
 30
0.0
 41
1.037954849302043
 10
59.87479560814282
 20
394.8955096147419
 30
0.0
 41
1.0
  0
SPLINE
  5
648
330
77
100
AcDbEntity
  8
Spigoli visibili(ISO)
100
AcDbSpline
210
0.0
220
0.0
230
1.0
 70
    12
 71
     2
 72
     6
 73
     3
 74
     0
 42
0.0000000001
 43
0.0000000001
 40
0.3807113172039056
 40
0.3807113172039056
 40
0.3807113172039056
 40
0.7614226344078111
 40
0.7614226344078111
 40
0.7614226344078111
 10
50.12479560814286
 20
394.8955096147419
 30
0.0
 41
1.0
 10
51.63312585734054
 20
394.8955096147419
 30
0.0
 41
1.037954849302078
 10
53.37479560814282
 20
395.4760661983426
 30
0.0
 41
1.0
  0
LINE
  5
649
330
77
100
AcDbEntity
  8
Spigoli visibili(ISO)
100
AcDbLine
 10
50.12479560814284
 20
394.8955096147419
 30
0.0
 11
56.62479560814284
 21
394.8955096147419
 31
0.0
  0
SPLINE
  5
64A
330
77
100
AcDbEntity
  8
Spigoli visibili(ISO)
100
AcDbSpline
210
0.0
220
0.0
230
1.0
 70
    12
 71
     2
 72
     6
 73
     3
 74
     0
 42
0.0000000001
 43
0.0000000001
 40
0.0
 40
0.0
 40
0.0
 40
0.3807113172039051
 40
0.3807113172039051
 40
0.3807113172039051
 10
53.37479560814287
 20
395.4760661983426
 30
0.0
 41
1.0
 10
55.11646535894514
 20
394.8955096147419
 30
0.0
 41
1.037954849302046
 10
56.62479560814283
 20
394.8955096147419
 30
0.0
 41
1.0
  0
SPLINE
  5
64B
330
77
100
AcDbEntity
  8
Spigoli visibili(ISO)
100
AcDbSpline
210
0.0
220
0.0
230
1.0
 70
    28
 71
     2
 72
     6
 73
     3
 74
     0
 42
0.0000000001
 43
0.0000000001
 40
0.3807113172039047
 40
0.3807113172039047
 40
0.3807113172039047
 40
0.7614226344078095
 40
0.7614226344078095
 40
0.7614226344078095
 10
46.87479560814288
 20
394.8955096147419
 30
0.0
 41
1.0
 10
46.87479560814288
 20
394.8955096147419
 30
0.0
 41
1.037954849302053
 10
46.87479560814288
 20
395.4760661983426
 30
0.0
 41
1.0
  0
LINE
  5
64C
330
77
100
AcDbEntity
  8
Spigoli visibili(ISO)
100
AcDbLine
 10
46.87479560814288
 20
394.8955096147419
 30
0.0
 11
50.12479560814284
 21
394.8955096147419
 31
0.0
  0
SPLINE
  5
64D
330
77
100
AcDbEntity
  8
Spigoli visibili(ISO)
100
AcDbSpline
210
0.0
220
0.0
230
1.0
 70
    12
 71
     2
 72
     6
 73
     3
 74
     0
 42
0.0000000001
 43
0.0000000001
 40
0.0
 40
0.0
 40
0.0
 40
0.3807113172039056
 40
0.3807113172039056
 40
0.3807113172039056
 10
46.8747956081429
 20
395.4760661983426
 30
0.0
 41
1.0
 10
48.61646535894518
 20
394.8955096147419
 30
0.0
 41
1.037954849302057
 10
50.12479560814286
 20
394.8955096147419
 30
0.0
 41
1.0
  0
LINE
  5
64E
330
77
100
AcDbEntity
  8
Spigoli visibili(ISO)
100
AcDbLine
 10
46.87479560814288
 20
399.5955096147418
 30
0.0
 11
46.87479560814288
 21
395.4760661983426
 31
0.0
  0
LINE
  5
64F
330
77
100
AcDbEntity
  8
Spigoli visibili(ISO)
100
AcDbLine
 10
53.37479560814283
 20
399.5955096147418
 30
0.0
 11
53.37479560814283
 21
395.4760661983426
 31
0.0
  0
LINE
  5
650
330
77
100
AcDbEntity
  8
Spigoli visibili(ISO)
100
AcDbLine
 10
46.87479560814288
 20
399.5955096147418
 30
0.0
 11
53.37479560814283
 21
399.5955096147418
 31
0.0
  0
LINE
  5
651
330
77
100
AcDbEntity
  8
Spigoli visibili(ISO)
100
AcDbLine
 10
59.8747956081428
 20
399.5955096147418
 30
0.0
 11
59.8747956081428
 21
395.4760661983426
 31
0.0
  0
LINE
  5
652
330
77
100
AcDbEntity
  8
Spigoli visibili(ISO)
100
AcDbLine
 10
53.37479560814283
 20
399.5955096147418
 30
0.0
 11
59.8747956081428
 21
399.5955096147418
 31
0.0
  0
LINE
  5
653
330
77
100
AcDbEntity
  8
Spigoli visibili(ISO)
100
AcDbLine
 10
47.55979560814289
 20
399.5955096147418
 30
0.0
 11
47.55979560814289
 21
400.1956096147418
 31
0.0
  0
LINE
  5
654
330
77
100
AcDbEntity
  8
Spigoli visibili(ISO)
100
AcDbLine
 10
59.18979560814282
 20
399.5955096147418
 30
0.0
 11
59.18979560814282
 21
400.1956096147418
 31
0.0
  0
LINE
  5
655
330
77
100
AcDbEntity
  8
Spigoli visibili(ISO)
100
AcDbLine
 10
241.3747956081429
 20
440.6956096147418
 30
0.0
 11
241.3747956081429
 21
433.6956096147417
 31
0.0
  0
LINE
  5
656
330
77
100
AcDbEntity
  8
Spigoli visibili(ISO)
100
AcDbLine
 10
240.8747956081429
 20
433.1956096147417
 30
0.0
 11
240.8747956081429
 21
441.1956096147418
 31
0.0
  0
LINE
  5
657
330
77
100
AcDbEntity
  8
Spigoli visibili(ISO)
100
AcDbLine
 10
241.3747956081429
 20
433.6956096147418
 30
0.0
 11
240.8747956081429
 21
433.1956096147417
 31
0.0
  0
LINE
  5
658
330
77
100
AcDbEntity
  8
Spigoli visibili(ISO)
100
AcDbLine
 10
241.3747956081429
 20
440.6956096147417
 30
0.0
 11
240.8747956081429
 21
441.1956096147418
 31
0.0
  0
LINE
  5
659
330
77
100
AcDbEntity
  8
Spigoli visibili(ISO)
100
AcDbLine
 10
197.9747956081429
 20
441.1956096147418
 30
0.0
 11
240.8747956081429
 21
441.1956096147418
 31
0.0
  0
LINE
  5
65A
330
77
100
AcDbEntity
  8
Spigoli visibili(ISO)
100
AcDbLine
 10
197.9747956081429
 20
433.1956096147417
 30
0.0
 11
240.8747956081429
 21
433.1956096147417
 31
0.0
  0
LINE
  5
65B
330
77
100
AcDbEntity
  8
Spigoli visibili(ISO)
100
AcDbLine
 10
241.3747956081429
 20
528.6956096147418
 30
0.0
 11
241.3747956081429
 21
521.6956096147417
 31
0.0
  0
LINE
  5
65C
330
77
100
AcDbEntity
  8
Spigoli visibili(ISO)
100
AcDbLine
 10
240.8747956081429
 20
521.1956096147418
 30
0.0
 11
240.8747956081429
 21
529.1956096147417
 31
0.0
  0
LINE
  5
65D
330
77
100
AcDbEntity
  8
Spigoli visibili(ISO)
100
AcDbLine
 10
241.3747956081429
 20
521.6956096147419
 30
0.0
 11
240.8747956081429
 21
521.1956096147418
 31
0.0
  0
LINE
  5
65E
330
77
100
AcDbEntity
  8
Spigoli visibili(ISO)
100
AcDbLine
 10
241.3747956081429
 20
528.6956096147418
 30
0.0
 11
240.8747956081429
 21
529.1956096147417
 31
0.0
  0
LINE
  5
65F
330
77
100
AcDbEntity
  8
Spigoli visibili(ISO)
100
AcDbLine
 10
197.9747956081428
 20
529.1956096147417
 30
0.0
 11
240.8747956081429
 21
529.1956096147417
 31
0.0
  0
LINE
  5
660
330
77
100
AcDbEntity
  8
Spigoli visibili(ISO)
100
AcDbLine
 10
197.9747956081428
 20
521.1956096147418
 30
0.0
 11
240.8747956081429
 21
521.1956096147418
 31
0.0
  0
LINE
  5
661
330
77
100
AcDbEntity
  8
Spigoli visibili(ISO)
100
AcDbLine
 10
197.974795608143
 20
445.1956096147418
 30
0.0
 11
197.974795608143
 21
429.1956096147418
 31
0.0
  0
LINE
  5
662
330
77
100
AcDbEntity
  8
Spigoli visibili(ISO)
100
AcDbLine
 10
196.374795608143
 20
445.1956096147418
 30
0.0
 11
197.974795608143
 21
445.1956096147418
 31
0.0
  0
LINE
  5
663
330
77
100
AcDbEntity
  8
Spigoli visibili(ISO)
100
AcDbLine
 10
196.3747956081429
 20
429.1956096147418
 30
0.0
 11
197.9747956081429
 21
429.1956096147418
 31
0.0
  0
LINE
  5
664
330
77
100
AcDbEntity
  8
Spigoli visibili(ISO)
100
AcDbLine
 10
197.9747956081428
 20
533.1956096147417
 30
0.0
 11
197.9747956081428
 21
517.1956096147418
 31
0.0
  0
LINE
  5
665
330
77
100
AcDbEntity
  8
Spigoli visibili(ISO)
100
AcDbLine
 10
197.9747956081428
 20
517.1956096147417
 30
0.0
 11
196.3747956081428
 21
517.1956096147417
 31
0.0
  0
LINE
  5
666
330
77
100
AcDbEntity
  8
Spigoli visibili(ISO)
100
AcDbLine
 10
197.9747956081428
 20
533.1956096147418
 30
0.0
 11
196.3747956081429
 21
533.1956096147418
 31
0.0
  0
ARC
  5
667
330
77
100
AcDbEntity
  8
Spigoli visibili(ISO)
100
AcDbCircle
 10
67.51693123187383
 20
430.1956096147418
 30
0.0
 40
9.999999999999984
100
AcDbArc
 50
89.99999999999994
 51
135.0
  0
ARC
  5
668
330
77
100
AcDbEntity
  8
Spigoli visibili(ISO)
100
AcDbCircle
 10
165.874538344079
 20
518.053216726947
 30
0.0
 40
9.999999999999902
100
AcDbArc
 50
134.9999999999995
 51
180.0
  0
LINE
  5
669
330
77
100
AcDbEntity
  8
Spigoli visibili(ISO)
100
AcDbLine
 10
67.51693123187383
 20
440.1956096147418
 30
0.0
 11
155.8747956081429
 21
440.1956096147418
 31
0.0
  0
LINE
  5
66A
330
77
100
AcDbEntity
  8
Spigoli visibili(ISO)
100
AcDbLine
 10
31.37479560814288
 20
407.6956096147418
 30
0.0
 11
31.37479560814288
 21
408.1956096147417
 31
0.0
  0
LINE
  5
66B
330
77
100
AcDbEntity
  8
Spigoli visibili(ISO)
100
AcDbLine
 10
186.3747956081429
 20
409.6956096147419
 30
0.0
 11
186.3747956081429
 21
407.6956096147417
 31
0.0
  0
LINE
  5
66C
330
77
100
AcDbEntity
  8
Spigoli visibili(ISO)
100
AcDbLine
 10
155.8745383440791
 20
441.0786096147416
 30
0.0
 11
155.8745383440791
 21
518.053216726947
 31
0.0
  0
LINE
  5
66D
330
77
100
AcDbEntity
  8
Spigoli visibili(ISO)
100
AcDbLine
 10
186.7575383440789
 20
410.1956096147418
 30
0.0
 11
155.8745383440791
 21
441.0786096147416
 31
0.0
  0
LINE
  5
66E
330
77
100
AcDbEntity
  8
Spigoli visibili(ISO)
100
AcDbLine
 10
186.7575383440789
 20
410.1956096147418
 30
0.0
 11
188.8747956081429
 21
410.1956096147419
 31
0.0
  0
LINE
  5
66F
330
77
100
AcDbEntity
  8
Spigoli visibili(ISO)
100
AcDbLine
 10
188.8747956081429
 20
555.1956096147419
 30
0.0
 11
158.8034705322137
 21
525.1242845388126
 31
0.0
  0
LINE
  5
670
330
77
100
AcDbEntity
  8
Spigoli visibili(ISO)
100
AcDbLine
 10
188.8747956081429
 20
555.1956096147419
 30
0.0
 11
196.3747956081429
 21
555.1956096147419
 31
0.0
  0
LINE
  5
671
330
77
100
AcDbEntity
  8
Spigoli visibili(ISO)
100
AcDbLine
 10
191.3747956081429
 20
407.6956096147418
 30
0.0
 11
191.3747956081429
 21
410.1956096147419
 31
0.0
  0
LINE
  5
672
330
77
100
AcDbEntity
  8
Spigoli visibili(ISO)
100
AcDbLine
 10
196.3747956081429
 20
555.1956096147419
 30
0.0
 11
196.3747956081429
 21
410.1956096147418
 31
0.0
  0
LINE
  5
673
330
77
100
AcDbEntity
  8
Spigoli visibili(ISO)
100
AcDbLine
 10
196.3747956081429
 20
410.1956096147419
 30
0.0
 11
196.3747956081429
 21
407.6956096147418
 31
0.0
  0
LINE
  5
674
330
77
100
AcDbEntity
  8
Spigoli visibili(ISO)
100
AcDbLine
 10
196.3747956081429
 20
410.1956096147418
 30
0.0
 11
188.8747956081429
 21
410.1956096147418
 31
0.0
  0
ARC
  5
675
330
77
100
AcDbEntity
  8
Spigoli visibili(ISO)
100
AcDbCircle
 10
188.8747956081425
 20
407.6956096147418
 30
0.0
 40
7.500000000000381
100
AcDbArc
 50
340.5287793655103
 51
0.0
  0
LINE
  5
676
330
77
100
AcDbEntity
  8
Spigoli visibili(ISO)
100
AcDbLine
 10
195.9458634200084
 20
405.1956096147418
 30
0.0
 11
191.3747956081429
 21
405.1956096147418
 31
0.0
  0
LINE
  5
677
330
77
100
AcDbEntity
  8
Spigoli visibili(ISO)
100
AcDbLine
 10
191.3747956081429
 20
405.1956096147418
 30
0.0
 11
191.3747956081429
 21
407.6956096147418
 31
0.0
  0
ARC
  5
678
330
77
100
AcDbEntity
  8
Spigoli visibili(ISO)
100
AcDbCircle
 10
188.8747956081429
 20
407.6956096147418
 30
0.0
 40
2.500000000000005
100
AcDbArc
 50
270.0
 51
0.0
  0
LINE
  5
679
330
77
100
AcDbEntity
  8
Spigoli visibili(ISO)
100
AcDbLine
 10
186.3747956081429
 20
405.1956096147418
 30
0.0
 11
188.8747956081429
 21
405.1956096147418
 31
0.0
  0
ARC
  5
67A
330
77
100
AcDbEntity
  8
Spigoli visibili(ISO)
100
AcDbCircle
 10
188.8747956081429
 20
407.6956096147418
 30
0.0
 40
7.499999999999998
100
AcDbArc
 50
270.0000000000002
 51
340.5287793655099
  0
LINE
  5
67B
330
77
100
AcDbEntity
  8
Spigoli visibili(ISO)
100
AcDbLine
 10
186.3747956081429
 20
407.6956096147417
 30
0.0
 11
186.3747956081429
 21
400.1956096147418
 31
0.0
  0
LINE
  5
67C
330
77
100
AcDbEntity
  8
Spigoli visibili(ISO)
100
AcDbLine
 10
31.37479560814288
 20
407.6956096147418
 30
0.0
 11
31.37479560814288
 21
400.1956096147418
 31
0.0
  0
LINE
  5
67D
330
77
100
AcDbEntity
  8
Spigoli visibili(ISO)
100
AcDbLine
 10
186.3747956081429
 20
400.1956096147418
 30
0.0
 11
31.37479560814288
 21
400.1956096147418
 31
0.0
  0
LINE
  5
67E
330
77
100
AcDbEntity
  8
Spigoli visibili(ISO)
100
AcDbLine
 10
188.8747956081429
 20
400.1956096147418
 30
0.0
 11
186.3747956081429
 21
400.1956096147418
 31
0.0
  0
LINE
  5
67F
330
77
100
AcDbEntity
  8
Spigoli visibili(ISO)
100
AcDbLine
 10
60.44586342000835
 20
437.2666774266073
 30
0.0
 11
31.37479560814288
 21
408.1956096147417
 31
0.0
  0
LINE
  5
680
330
77
100
AcDbEntity
  8
Spigoli visibili(ISO)
100
AcDbLine
 10
186.3747956081429
 20
409.6956096147419
 30
0.0
 11
155.8747956081429
 21
440.1956096147418
 31
0.0
  0
SPLINE
  5
681
330
77
100
AcDbEntity
  8
Spigoli visibili(ISO)
100
AcDbSpline
210
0.0
220
0.0
230
1.0
 70
    12
 71
     2
 72
     6
 73
     3
 74
     0
 42
0.0000000001
 43
0.0000000001
 40
0.0
 40
0.0
 40
0.0
 40
7.596804552401591
 40
7.596804552401591
 40
7.596804552401591
 10
310.7369758852264
 20
411.1139292185331
 30
0.0
 41
1.0
 10
311.1424167162197
 20
412.1975435050185
 30
0.0
 41
1.154700538379265
 10
311.5478575472131
 20
411.113929218533
 30
0.0
 41
1.0
  0
LINE
  5
682
330
77
100
AcDbEntity
  8
Spigoli visibili(ISO)
100
AcDbLine
 10
310.7369758852265
 20
411.1139292185331
 30
0.0
 11
310.7369758852264
 21
405.7772900109503
 31
0.0
  0
SPLINE
  5
683
330
77
100
AcDbEntity
  8
Spigoli visibili(ISO)
100
AcDbSpline
210
0.0
220
0.0
230
1.0
 70
    12
 71
     2
 72
     6
 73
     3
 74
     0
 42
0.0000000001
 43
0.0000000001
 40
0.0
 40
0.0
 40
0.0
 40
7.596804552401486
 40
7.596804552401486
 40
7.596804552401486
 10
311.5478575472131
 20
405.7772900109503
 30
0.0
 41
1.0
 10
311.1424167162198
 20
404.693675724465
 30
0.0
 41
1.154700538379169
 10
310.7369758852264
 20
405.7772900109503
 30
0.0
 41
1.0
  0
LINE
  5
684
330
77
100
AcDbEntity
  8
Spigoli visibili(ISO)
100
AcDbLine
 10
311.5478575472131
 20
411.113929218533
 30
0.0
 11
311.5478575472131
 21
405.7772900109503
 31
0.0
  0
SPLINE
  5
685
330
77
100
AcDbEntity
  8
Spigoli visibili(ISO)
100
AcDbSpline
210
0.0
220
0.0
230
1.0
 70
    12
 71
     2
 72
     6
 73
     3
 74
     0
 42
0.0000000001
 43
0.0000000001
 40
0.0
 40
0.0
 40
0.0
 40
7.596804552401592
 40
7.596804552401592
 40
7.596804552401592
 10
311.5478575472131
 20
411.113929218533
 30
0.0
 41
1.0
 10
314.9824029264566
 20
412.1975435050185
 30
0.0
 41
1.154700538379265
 10
318.4169483057001
 20
411.113929218533
 30
0.0
 41
1.0
  0
SPLINE
  5
686
330
77
100
AcDbEntity
  8
Spigoli visibili(ISO)
100
AcDbSpline
210
0.0
220
0.0
230
1.0
 70
    12
 71
     2
 72
     6
 73
     3
 74
     0
 42
0.0000000001
 43
0.0000000001
 40
0.0
 40
0.0
 40
0.0
 40
7.596804552401487
 40
7.596804552401487
 40
7.596804552401487
 10
318.4169483057001
 20
405.7772900109502
 30
0.0
 41
1.0
 10
314.9824029264566
 20
404.693675724465
 30
0.0
 41
1.154700538379169
 10
311.547857547213
 20
405.7772900109503
 30
0.0
 41
1.0
  0
LINE
  5
687
330
77
100
AcDbEntity
  8
Spigoli visibili(ISO)
100
AcDbLine
 10
318.4169483057001
 20
405.7772900109503
 30
0.0
 11
318.4169483057001
 21
411.113929218533
 31
0.0
  0
SPLINE
  5
688
330
77
100
AcDbEntity
  8
Spigoli visibili(ISO)
100
AcDbSpline
210
0.0
220
0.0
230
1.0
 70
    12
 71
     2
 72
     6
 73
     3
 74
     0
 42
0.0000000001
 43
0.0000000001
 40
0.0
 40
0.0
 40
0.0
 40
7.596804552401745
 40
7.596804552401745
 40
7.596804552401745
 10
318.4169483057
 20
411.113929218533
 30
0.0
 41
1.0
 10
321.4460528539503
 20
412.1975435050186
 30
0.0
 41
1.154700538379257
 10
324.4751574022007
 20
411.113929218533
 30
0.0
 41
1.0
  0
SPLINE
  5
689
330
77
100
AcDbEntity
  8
Spigoli visibili(ISO)
100
AcDbSpline
210
0.0
220
0.0
230
1.0
 70
    12
 71
     2
 72
     6
 73
     3
 74
     0
 42
0.0000000001
 43
0.0000000001
 40
0.0
 40
0.0
 40
0.0
 40
7.59680455240171
 40
7.59680455240171
 40
7.59680455240171
 10
324.4751574022007
 20
405.7772900109502
 30
0.0
 41
1.0
 10
321.4460528539504
 20
404.693675724465
 30
0.0
 41
1.154700538379283
 10
318.4169483057001
 20
405.7772900109503
 30
0.0
 41
1.0
  0
LINE
  5
68A
330
77
100
AcDbEntity
  8
Spigoli visibili(ISO)
100
AcDbLine
 10
324.4751574022007
 20
411.113929218533
 30
0.0
 11
324.4751574022007
 21
405.7772900109503
 31
0.0
  0
SPLINE
  5
68B
330
77
100
AcDbEntity
  8
Spigoli visibili(ISO)
100
AcDbSpline
210
0.0
220
0.0
230
1.0
 70
    12
 71
     2
 72
     6
 73
     3
 74
     0
 42
0.0000000001
 43
0.0000000001
 40
0.0
 40
0.0
 40
0.0
 40
3.030593889621676
 40
3.030593889621676
 40
3.030593889621676
 10
324.4751574022007
 20
411.113929218533
 30
0.0
 41
1.0
 10
324.2992493127701
 20
411.5840755487588
 30
0.0
 41
1.061714699002644
 10
324.1460119782673
 20
411.6725471650842
 30
0.0
 41
1.074189697705739
  0
SPLINE
  5
68C
330
77
100
AcDbEntity
  8
Spigoli visibili(ISO)
100
AcDbSpline
210
0.0
220
0.0
230
1.0
 70
    12
 71
     2
 72
     6
 73
     3
 74
     0
 42
0.0000000001
 43
0.0000000001
 40
4.56621066278008
 40
4.56621066278008
 40
4.56621066278008
 40
7.596804552401486
 40
7.596804552401486
 40
7.596804552401486
 10
324.1460119782673
 20
405.2186720643992
 30
0.0
 41
1.074189697705691
 10
324.2992493127702
 20
405.3071436807246
 30
0.0
 41
1.061714699002602
 10
324.4751574022006
 20
405.7772900109502
 30
0.0
 41
1.0
  0
LINE
  5
68D
330
77
100
AcDbEntity
  8
Spigoli visibili(ISO)
100
AcDbLine
 10
324.1060666437135
 20
411.6956096147418
 30
0.0
 11
311.1060666437136
 21
411.6956096147418
 31
0.0
  0
LINE
  5
68E
330
77
100
AcDbEntity
  8
Spigoli visibili(ISO)
100
AcDbLine
 10
311.1060666437135
 20
405.1956096147417
 30
0.0
 11
311.0661213091598
 21
405.2186720643992
 31
0.0
  0
LINE
  5
68F
330
77
100
AcDbEntity
  8
Spigoli visibili(ISO)
100
AcDbLine
 10
324.1060666437136
 20
405.1956096147417
 30
0.0
 11
324.1460119782673
 21
405.2186720643992
 31
0.0
  0
LINE
  5
690
330
77
100
AcDbEntity
  8
Spigoli visibili(ISO)
100
AcDbLine
 10
324.1060666437135
 20
411.6956096147418
 30
0.0
 11
324.1460119782673
 21
411.6725471650843
 31
0.0
  0
LINE
  5
691
330
77
100
AcDbEntity
  8
Spigoli visibili(ISO)
100
AcDbLine
 10
311.1060666437136
 20
411.6956096147418
 30
0.0
 11
311.0661213091598
 21
411.6725471650842
 31
0.0
  0
LINE
  5
692
330
77
100
AcDbEntity
  8
Spigoli visibili(ISO)
100
AcDbLine
 10
321.6060666437134
 20
424.4286971147417
 30
0.0
 11
313.6060666437135
 21
424.4286971147417
 31
0.0
  0
LINE
  5
693
330
77
100
AcDbEntity
  8
Spigoli visibili(ISO)
100
AcDbLine
 10
314.3728791437135
 20
425.1956096147416
 30
0.0
 11
320.8392541437135
 21
425.1956096147416
 31
0.0
  0
LINE
  5
694
330
77
100
AcDbEntity
  8
Spigoli visibili(ISO)
100
AcDbLine
 10
320.8392541437135
 20
425.1956096147416
 30
0.0
 11
321.6060666437134
 21
424.4286971147417
 31
0.0
  0
LINE
  5
695
330
77
100
AcDbEntity
  8
Spigoli visibili(ISO)
100
AcDbLine
 10
314.3728791437135
 20
425.1956096147416
 30
0.0
 11
313.6060666437135
 21
424.4286971147417
 31
0.0
  0
SPLINE
  5
696
330
77
100
AcDbEntity
  8
Spigoli visibili(ISO)
100
AcDbSpline
210
0.0
220
0.0
230
1.0
 70
    12
 71
     2
 72
     6
 73
     3
 74
     0
 42
0.0000000001
 43
0.0000000001
 40
0.3807113172039056
 40
0.3807113172039056
 40
0.3807113172039056
 40
0.7614226344078111
 40
0.7614226344078111
 40
0.7614226344078111
 10
323.2352317683113
 20
394.8955096147419
 30
0.0
 41
1.0
 10
324.1060666437129
 20
394.8955096147419
 30
0.0
 41
1.037954849302078
 10
325.1116201431785
 20
395.4760661983426
 30
0.0
 41
1.0
  0
LINE
  5
697
330
77
100
AcDbEntity
  8
Spigoli visibili(ISO)
100
AcDbLine
 10
323.2352317683114
 20
394.8955096147419
 30
0.0
 11
324.1060666437135
 21
394.8955096147419
 31
0.0
  0
SPLINE
  5
698
330
77
100
AcDbEntity
  8
Spigoli visibili(ISO)
100
AcDbSpline
210
0.0
220
0.0
230
1.0
 70
    12
 71
     2
 72
     6
 73
     3
 74
     0
 42
0.0000000001
 43
0.0000000001
 40
0.0
 40
0.0
 40
0.0
 40
0.3807113172039049
 40
0.3807113172039049
 40
0.3807113172039049
 10
310.1005131442483
 20
395.4760661983426
 30
0.0
 41
1.0
 10
311.106066643713
 20
394.8955096147419
 30
0.0
 41
1.037954849302026
 10
311.9769015191137
 20
394.8955096147419
 30
0.0
 41
1.0
  0
LINE
  5
699
330
77
100
AcDbEntity
  8
Spigoli visibili(ISO)
100
AcDbLine
 10
311.1060666437134
 20
394.8955096147419
 30
0.0
 11
311.9769015191136
 21
394.8955096147419
 31
0.0
  0
SPLINE
  5
69A
330
77
100
AcDbEntity
  8
Spigoli visibili(ISO)
100
AcDbSpline
210
0.0
220
0.0
230
1.0
 70
    12
 71
     2
 72
     6
 73
     3
 74
     0
 42
0.0000000001
 43
0.0000000001
 40
0.3807113172039047
 40
0.3807113172039047
 40
0.3807113172039047
 40
0.7614226344078095
 40
0.7614226344078095
 40
0.7614226344078095
 10
317.6060666437115
 20
394.8955096147419
 30
0.0
 41
1.0
 10
319.3477363945139
 20
394.8955096147419
 30
0.0
 41
1.037954849302053
 10
321.3588433934441
 20
395.4760661983426
 30
0.0
 41
1.0
  0
LINE
  5
69B
330
77
100
AcDbEntity
  8
Spigoli visibili(ISO)
100
AcDbLine
 10
317.6060666437115
 20
394.8955096147419
 30
0.0
 11
323.2352317683114
 21
394.8955096147419
 31
0.0
  0
SPLINE
  5
69C
330
77
100
AcDbEntity
  8
Spigoli visibili(ISO)
100
AcDbSpline
210
0.0
220
0.0
230
1.0
 70
    12
 71
     2
 72
     6
 73
     3
 74
     0
 42
0.0000000001
 43
0.0000000001
 40
0.0
 40
0.0
 40
0.0
 40
0.3807113172039056
 40
0.3807113172039056
 40
0.3807113172039056
 10
321.3588433934441
 20
395.4760661983426
 30
0.0
 41
1.0
 10
322.3643968929098
 20
394.8955096147419
 30
0.0
 41
1.037954849302057
 10
323.2352317683113
 20
394.8955096147419
 30
0.0
 41
1.0
  0
SPLINE
  5
69D
330
77
100
AcDbEntity
  8
Spigoli visibili(ISO)
100
AcDbSpline
210
0.0
220
0.0
230
1.0
 70
    12
 71
     2
 72
     6
 73
     3
 74
     0
 42
0.0000000001
 43
0.0000000001
 40
0.0
 40
0.0
 40
0.0
 40
0.3807113172039047
 40
0.3807113172039047
 40
0.3807113172039047
 10
313.853289893979
 20
395.4760661983426
 30
0.0
 41
1.0
 10
315.8643968929092
 20
394.8955096147419
 30
0.0
 41
1.037954849302045
 10
317.6060666437115
 20
394.8955096147419
 30
0.0
 41
1.0
  0
SPLINE
  5
69E
330
77
100
AcDbEntity
  8
Spigoli visibili(ISO)
100
AcDbSpline
210
0.0
220
0.0
230
1.0
 70
    12
 71
     2
 72
     6
 73
     3
 74
     0
 42
0.0000000001
 43
0.0000000001
 40
0.3807113172039049
 40
0.3807113172039049
 40
0.3807113172039049
 40
0.7614226344078099
 40
0.7614226344078099
 40
0.7614226344078099
 10
311.9769015191137
 20
394.8955096147419
 30
0.0
 41
1.0
 10
312.8477363945143
 20
394.8955096147419
 30
0.0
 41
1.037954849302047
 10
313.853289893979
 20
395.4760661983426
 30
0.0
 41
1.0
  0
LINE
  5
69F
330
77
100
AcDbEntity
  8
Spigoli visibili(ISO)
100
AcDbLine
 10
311.9769015191136
 20
394.8955096147419
 30
0.0
 11
317.6060666437115
 21
394.8955096147419
 31
0.0
  0
LINE
  5
6A0
330
77
100
AcDbEntity
  8
Spigoli visibili(ISO)
100
AcDbLine
 10
324.1060666437135
 20
394.8955096147419
 30
0.0
 11
325.1116201431785
 21
395.4760661983426
 31
0.0
  0
LINE
  5
6A1
330
77
100
AcDbEntity
  8
Spigoli visibili(ISO)
100
AcDbLine
 10
311.1060666437134
 20
394.8955096147419
 30
0.0
 11
310.1005131442483
 21
395.4760661983426
 31
0.0
  0
LINE
  5
6A2
330
77
100
AcDbEntity
  8
Spigoli visibili(ISO)
100
AcDbLine
 10
321.3588433934441
 20
399.5955096147418
 30
0.0
 11
321.3588433934441
 21
395.4760661983426
 31
0.0
  0
LINE
  5
6A3
330
77
100
AcDbEntity
  8
Spigoli visibili(ISO)
100
AcDbLine
 10
313.853289893979
 20
399.5955096147418
 30
0.0
 11
321.3588433934441
 21
399.5955096147418
 31
0.0
  0
LINE
  5
6A4
330
77
100
AcDbEntity
  8
Spigoli visibili(ISO)
100
AcDbLine
 10
313.853289893979
 20
399.5955096147418
 30
0.0
 11
313.853289893979
 21
395.4760661983426
 31
0.0
  0
LINE
  5
6A5
330
77
100
AcDbEntity
  8
Spigoli visibili(ISO)
100
AcDbLine
 10
325.1116201431785
 20
399.5955096147418
 30
0.0
 11
325.1116201431785
 21
395.4760661983426
 31
0.0
  0
LINE
  5
6A6
330
77
100
AcDbEntity
  8
Spigoli visibili(ISO)
100
AcDbLine
 10
321.3588433934441
 20
399.5955096147418
 30
0.0
 11
325.1116201431786
 21
399.5955096147418
 31
0.0
  0
LINE
  5
6A7
330
77
100
AcDbEntity
  8
Spigoli visibili(ISO)
100
AcDbLine
 10
310.1005131442483
 20
399.5955096147418
 30
0.0
 11
313.853289893979
 21
399.5955096147418
 31
0.0
  0
LINE
  5
6A8
330
77
100
AcDbEntity
  8
Spigoli visibili(ISO)
100
AcDbLine
 10
310.1005131442483
 20
399.5955096147418
 30
0.0
 11
310.1005131442483
 21
395.4760661983426
 31
0.0
  0
LINE
  5
6A9
330
77
100
AcDbEntity
  8
Spigoli visibili(ISO)
100
AcDbLine
 10
313.6060666437135
 20
411.6956096147419
 30
0.0
 11
313.6060666437135
 21
424.4286971147417
 31
0.0
  0
LINE
  5
6AA
330
77
100
AcDbEntity
  8
Spigoli visibili(ISO)
100
AcDbLine
 10
321.6060666437134
 20
411.6956096147419
 30
0.0
 11
321.6060666437134
 21
424.4286971147417
 31
0.0
  0
LINE
  5
6AB
330
77
100
AcDbEntity
  8
Spigoli visibili(ISO)
100
AcDbLine
 10
311.7910666437134
 20
399.5955096147418
 30
0.0
 11
311.7910666437134
 21
400.1956096147418
 31
0.0
  0
LINE
  5
6AC
330
77
100
AcDbEntity
  8
Spigoli visibili(ISO)
100
AcDbLine
 10
323.4210666437134
 20
399.5955096147418
 30
0.0
 11
323.4210666437134
 21
400.1956096147418
 31
0.0
  0
SPLINE
  5
6AD
330
77
100
AcDbEntity
  8
Spigoli visibili(ISO)
100
AcDbSpline
210
0.0
220
0.0
230
1.0
 70
    28
 71
     2
 72
     6
 73
     3
 74
     0
 42
0.0000000001
 43
0.0000000001
 40
0.3807113172039082
 40
0.3807113172039082
 40
0.3807113172039082
 40
0.7614226344078164
 40
0.7614226344078164
 40
0.7614226344078164
 10
283.7012419522762
 20
531.4102409710447
 30
0.0
 41
1.0
 10
285.3664474054546
 20
531.9206372088486
 30
0.0
 41
1.037954849302056
 10
287.2892610387521
 20
532.5099920194276
 30
0.0
 41
1.0
  0
ARC
  5
6AE
330
77
100
AcDbEntity
  8
Spigoli visibili(ISO)
100
AcDbCircle
 10
285.6060666437526
 20
525.1956096147418
 30
0.0
 40
6.499999999999982
100
AcDbArc
 50
47.04064076250666
 51
107.0406407625065
  0
SPLINE
  5
6AF
330
77
100
AcDbEntity
  8
Spigoli visibili(ISO)
100
AcDbSpline
210
0.0
220
0.0
230
1.0
 70
    28
 71
     2
 72
     6
 73
     3
 74
     0
 42
0.0000000001
 43
0.0000000001
 40
0.0
 40
0.0
 40
0.0
 40
0.3807113172039086
 40
0.3807113172039086
 40
0.3807113172039086
 10
287.2892610387521
 20
532.5099920194276
 30
0.0
 41
1.0
 10
288.7610640932045
 20
531.1394639715387
 30
0.0
 41
1.037954849302042
 10
290.035682927728
 20
529.9525518654677
 30
0.0
 41
1.0
  0
SPLINE
  5
6B0
330
77
100
AcDbEntity
  8
Spigoli visibili(ISO)
100
AcDbSpline
210
0.0
220
0.0
230
1.0
 70
    28
 71
     2
 72
     6
 73
     3
 74
     0
 42
0.0000000001
 43
0.0000000001
 40
0.3807113172039082
 40
0.3807113172039082
 40
0.3807113172039082
 40
0.7614226344078164
 40
0.7614226344078164
 40
0.7614226344078164
 10
279.2716256683009
 20
526.6532987203188
 30
0.0
 41
1.0
 10
279.6622122869559
 20
528.3506070641938
 30
0.0
 41
1.037954849302034
 10
280.1132228658007
 20
530.3104899226617
 30
0.0
 41
1.0
  0
ARC
  5
6B1
330
77
100
AcDbEntity
  8
Spigoli visibili(ISO)
100
AcDbCircle
 10
285.6060666437526
 20
525.1956096147418
 30
0.0
 40
6.499999999999976
100
AcDbArc
 50
107.0406407625065
 51
167.0406407625064
  0
SPLINE
  5
6B2
330
77
100
AcDbEntity
  8
Spigoli visibili(ISO)
100
AcDbSpline
210
0.0
220
0.0
230
1.0
 70
    28
 71
     2
 72
     6
 73
     3
 74
     0
 42
0.0000000001
 43
0.0000000001
 40
0.0
 40
0.0
 40
0.0
 40
0.3807113172039082
 40
0.3807113172039082
 40
0.3807113172039082
 10
280.1132228658007
 20
530.3104899226617
 30
0.0
 41
1.0
 10
282.0360364990977
 20
530.8998447332406
 30
0.0
 41
1.037954849302054
 10
283.7012419522762
 20
531.4102409710447
 30
0.0
 41
1.0
  0
SPLINE
  5
6B3
330
77
100
AcDbEntity
  8
Spigoli visibili(ISO)
100
AcDbSpline
210
0.0
220
0.0
230
1.0
 70
    28
 71
     2
 72
     6
 73
     3
 74
     0
 42
0.0000000001
 43
0.0000000001
 40
0.0
 40
0.0
 40
0.0
 40
0.3807113172039082
 40
0.3807113172039082
 40
0.3807113172039082
 10
292.7821048167042
 20
527.3951117115077
 30
0.0
 41
1.0
 10
292.3310942378594
 20
525.4352288530399
 30
0.0
 41
1.037954849302043
 10
291.9405076192044
 20
523.7379205091649
 30
0.0
 41
1.0
  0
SPLINE
  5
6B4
330
77
100
AcDbEntity
  8
Spigoli visibili(ISO)
100
AcDbSpline
210
0.0
220
0.0
230
1.0
 70
    28
 71
     2
 72
     6
 73
     3
 74
     0
 42
0.0000000001
 43
0.0000000001
 40
0.3807113172039086
 40
0.3807113172039086
 40
0.3807113172039086
 40
0.7614226344078171
 40
0.7614226344078171
 40
0.7614226344078171
 10
290.035682927728
 20
529.9525518654677
 30
0.0
 41
1.0
 10
291.3103017622514
 20
528.7656397593967
 30
0.0
 41
1.037954849302035
 10
292.7821048167042
 20
527.3951117115077
 30
0.0
 41
1.0
  0
ARC
  5
6B5
330
77
100
AcDbEntity
  8
Spigoli visibili(ISO)
100
AcDbCircle
 10
285.6060666437526
 20
525.1956096147418
 30
0.0
 40
6.499999999999985
100
AcDbArc
 50
347.0406407625065
 51
47.04064076250642
  0
SPLINE
  5
6B6
330
77
100
AcDbEntity
  8
Spigoli visibili(ISO)
100
AcDbSpline
210
0.0
220
0.0
230
1.0
 70
    28
 71
     2
 72
     6
 73
     3
 74
     0
 42
0.0000000001
 43
0.0000000001
 40
0.0
 40
0.0
 40
0.0
 40
0.3807113172039079
 40
0.3807113172039079
 40
0.3807113172039079
 10
291.0989104217049
 20
520.0807293068221
 30
0.0
 41
1.0
 10
289.1760967884075
 20
519.491374496243
 30
0.0
 41
1.037954849302045
 10
287.510891335229
 20
518.9809782584391
 30
0.0
 41
1.0
  0
SPLINE
  5
6B7
330
77
100
AcDbEntity
  8
Spigoli visibili(ISO)
100
AcDbSpline
210
0.0
220
0.0
230
1.0
 70
    28
 71
     2
 72
     6
 73
     3
 74
     0
 42
0.0000000001
 43
0.0000000001
 40
0.3807113172039082
 40
0.3807113172039082
 40
0.3807113172039082
 40
0.7614226344078164
 40
0.7614226344078164
 40
0.7614226344078164
 10
291.9405076192044
 20
523.7379205091649
 30
0.0
 41
1.0
 10
291.5499210005494
 20
522.04061216529
 30
0.0
 41
1.037954849302037
 10
291.0989104217049
 20
520.0807293068221
 30
0.0
 41
1.0
  0
ARC
  5
6B8
330
77
100
AcDbEntity
  8
Spigoli visibili(ISO)
100
AcDbCircle
 10
285.6060666437526
 20
525.1956096147418
 30
0.0
 40
6.499999999999986
100
AcDbArc
 50
287.0406407625068
 51
347.0406407625065
  0
SPLINE
  5
6B9
330
77
100
AcDbEntity
  8
Spigoli visibili(ISO)
100
AcDbSpline
210
0.0
220
0.0
230
1.0
 70
    28
 71
     2
 72
     6
 73
     3
 74
     0
 42
0.0000000001
 43
0.0000000001
 40
0.3807113172039082
 40
0.3807113172039082
 40
0.3807113172039082
 40
0.7614226344078164
 40
0.7614226344078164
 40
0.7614226344078164
 10
281.1764503597773
 20
520.438667364016
 30
0.0
 41
1.0
 10
279.9018315252538
 20
521.6255794700871
 30
0.0
 41
1.037954849302037
 10
278.4300284708014
 20
522.996107517976
 30
0.0
 41
1.0
  0
ARC
  5
6BA
330
77
100
AcDbEntity
  8
Spigoli visibili(ISO)
100
AcDbCircle
 10
285.6060666437526
 20
525.1956096147418
 30
0.0
 40
6.49999999999999
100
AcDbArc
 50
167.0406407625065
 51
227.0406407625064
  0
SPLINE
  5
6BB
330
77
100
AcDbEntity
  8
Spigoli visibili(ISO)
100
AcDbSpline
210
0.0
220
0.0
230
1.0
 70
    28
 71
     2
 72
     6
 73
     3
 74
     0
 42
0.0000000001
 43
0.0000000001
 40
0.0
 40
0.0
 40
0.0
 40
0.3807113172039082
 40
0.3807113172039082
 40
0.3807113172039082
 10
278.4300284708014
 20
522.996107517976
 30
0.0
 41
1.0
 10
278.8810390496459
 20
524.9559903764439
 30
0.0
 41
1.037954849302047
 10
279.2716256683009
 20
526.6532987203188
 30
0.0
 41
1.0
  0
SPLINE
  5
6BC
330
77
100
AcDbEntity
  8
Spigoli visibili(ISO)
100
AcDbSpline
210
0.0
220
0.0
230
1.0
 70
    28
 71
     2
 72
     6
 73
     3
 74
     0
 42
0.0000000001
 43
0.0000000001
 40
0.3807113172039079
 40
0.3807113172039079
 40
0.3807113172039079
 40
0.7614226344078161
 40
0.7614226344078161
 40
0.7614226344078161
 10
287.510891335229
 20
518.9809782584391
 30
0.0
 41
1.0
 10
285.8456858820506
 20
518.470582020635
 30
0.0
 41
1.037954849302044
 10
283.9228722487535
 20
517.8812272100562
 30
0.0
 41
1.0
  0
ARC
  5
6BD
330
77
100
AcDbEntity
  8
Spigoli visibili(ISO)
100
AcDbCircle
 10
285.6060666437526
 20
525.1956096147418
 30
0.0
 40
6.499999999999984
100
AcDbArc
 50
227.0406407625067
 51
287.0406407625065
  0
SPLINE
  5
6BE
330
77
100
AcDbEntity
  8
Spigoli visibili(ISO)
100
AcDbSpline
210
0.0
220
0.0
230
1.0
 70
    28
 71
     2
 72
     6
 73
     3
 74
     0
 42
0.0000000001
 43
0.0000000001
 40
0.0
 40
0.0
 40
0.0
 40
0.3807113172039082
 40
0.3807113172039082
 40
0.3807113172039082
 10
283.9228722487535
 20
517.8812272100562
 30
0.0
 41
1.0
 10
282.4510691943008
 20
519.2517552579452
 30
0.0
 41
1.037954849302036
 10
281.1764503597773
 20
520.438667364016
 30
0.0
 41
1.0
  0
SPLINE
  5
6BF
330
77
100
AcDbEntity
  8
Spigoli visibili(ISO)
100
AcDbSpline
210
0.0
220
0.0
230
1.0
 70
    28
 71
     2
 72
     6
 73
     3
 74
     0
 42
0.0000000001
 43
0.0000000001
 40
0.3807113172039082
 40
0.3807113172039082
 40
0.3807113172039082
 40
0.7614226344078164
 40
0.7614226344078164
 40
0.7614226344078164
 10
351.4271606111033
 20
430.95592879261
 30
0.0
 41
1.0
 10
349.7552431737852
 20
430.4679681347172
 30
0.0
 41
1.037954849302056
 10
347.8246792087885
 20
429.9045197003404
 30
0.0
 41
1.0
  0
ARC
  5
6C0
330
77
100
AcDbEntity
  8
Spigoli visibili(ISO)
100
AcDbCircle
 10
349.6060666437525
 20
437.1956096147417
 30
0.0
 40
6.5
100
AcDbArc
 50
226.2702497908521
 51
286.2702497908518
  0
SPLINE
  5
6C1
330
77
100
AcDbEntity
  8
Spigoli visibili(ISO)
100
AcDbSpline
210
0.0
220
0.0
230
1.0
 70
    28
 71
     2
 72
     6
 73
     3
 74
     0
 42
0.0000000001
 43
0.0000000001
 40
0.0
 40
0.0
 40
0.0
 40
0.3807113172039086
 40
0.3807113172039086
 40
0.3807113172039086
 10
347.8246792087885
 20
429.9045197003404
 30
0.0
 41
1.0
 10
346.3714365683969
 20
431.2947129204702
 30
0.0
 41
1.037954849302042
 10
345.1128915239553
 20
432.4986555652714
 30
0.0
 41
1.0
  0
SPLINE
  5
6C2
330
77
100
AcDbEntity
  8
Spigoli visibili(ISO)
100
AcDbSpline
210
0.0
220
0.0
230
1.0
 70
    28
 71
     2
 72
     6
 73
     3
 74
     0
 42
0.0000000001
 43
0.0000000001
 40
0.3807113172039082
 40
0.3807113172039082
 40
0.3807113172039082
 40
0.7614226344078164
 40
0.7614226344078164
 40
0.7614226344078164
 10
355.9203357309006
 20
435.6528828420803
 30
0.0
 41
1.0
 10
355.5069633380241
 20
433.9609795393862
 30
0.0
 41
1.037954849302034
 10
355.0296420134186
 20
432.0073378848797
 30
0.0
 41
1.0
  0
ARC
  5
6C3
330
77
100
AcDbEntity
  8
Spigoli visibili(ISO)
100
AcDbCircle
 10
349.6060666437525
 20
437.1956096147417
 30
0.0
 40
6.499999999999995
100
AcDbArc
 50
286.2702497908525
 51
346.2702497908525
  0
SPLINE
  5
6C4
330
77
100
AcDbEntity
  8
Spigoli visibili(ISO)
100
AcDbSpline
210
0.0
220
0.0
230
1.0
 70
    28
 71
     2
 72
     6
 73
     3
 74
     0
 42
0.0000000001
 43
0.0000000001
 40
0.0
 40
0.0
 40
0.0
 40
0.3807113172039082
 40
0.3807113172039082
 40
0.3807113172039082
 10
355.0296420134186
 20
432.0073378848797
 30
0.0
 41
1.0
 10
353.0990780484215
 20
431.443889450503
 30
0.0
 41
1.037954849302054
 10
351.4271606111033
 20
430.95592879261
 30
0.0
 41
1.0
  0
SPLINE
  5
6C5
330
77
100
AcDbEntity
  8
Spigoli visibili(ISO)
100
AcDbSpline
210
0.0
220
0.0
230
1.0
 70
    28
 71
     2
 72
     6
 73
     3
 74
     0
 42
0.0000000001
 43
0.0000000001
 40
0.0
 40
0.0
 40
0.0
 40
0.3807113172039082
 40
0.3807113172039082
 40
0.3807113172039082
 10
342.4011038391225
 20
435.0927914302025
 30
0.0
 41
1.0
 10
342.8784251637279
 20
437.0464330847091
 30
0.0
 41
1.037954849302043
 10
343.2917975566044
 20
438.7383363874032
 30
0.0
 41
1.0
  0
SPLINE
  5
6C6
330
77
100
AcDbEntity
  8
Spigoli visibili(ISO)
100
AcDbSpline
210
0.0
220
0.0
230
1.0
 70
    28
 71
     2
 72
     6
 73
     3
 74
     0
 42
0.0000000001
 43
0.0000000001
 40
0.3807113172039086
 40
0.3807113172039086
 40
0.3807113172039086
 40
0.7614226344078171
 40
0.7614226344078171
 40
0.7614226344078171
 10
345.1128915239553
 20
432.4986555652714
 30
0.0
 41
1.0
 10
343.8543464795137
 20
433.7025982100727
 30
0.0
 41
1.037954849302035
 10
342.4011038391225
 20
435.0927914302025
 30
0.0
 41
1.0
  0
ARC
  5
6C7
330
77
100
AcDbEntity
  8
Spigoli visibili(ISO)
100
AcDbCircle
 10
349.6060666437525
 20
437.1956096147417
 30
0.0
 40
6.500000000000005
100
AcDbArc
 50
166.2702497908525
 51
226.2702497908521
  0
SPLINE
  5
6C8
330
77
100
AcDbEntity
  8
Spigoli visibili(ISO)
100
AcDbSpline
210
0.0
220
0.0
230
1.0
 70
    28
 71
     2
 72
     6
 73
     3
 74
     0
 42
0.0000000001
 43
0.0000000001
 40
0.0
 40
0.0
 40
0.0
 40
0.3807113172039079
 40
0.3807113172039079
 40
0.3807113172039079
 10
344.1824912740867
 20
442.3838813446038
 30
0.0
 41
1.0
 10
346.1130552390835
 20
442.9473297789806
 30
0.0
 41
1.037954849302045
 10
347.7849726764016
 20
443.4352904368735
 30
0.0
 41
1.0
  0
SPLINE
  5
6C9
330
77
100
AcDbEntity
  8
Spigoli visibili(ISO)
100
AcDbSpline
210
0.0
220
0.0
230
1.0
 70
    28
 71
     2
 72
     6
 73
     3
 74
     0
 42
0.0000000001
 43
0.0000000001
 40
0.3807113172039082
 40
0.3807113172039082
 40
0.3807113172039082
 40
0.7614226344078164
 40
0.7614226344078164
 40
0.7614226344078164
 10
343.2917975566044
 20
438.7383363874032
 30
0.0
 41
1.0
 10
343.7051699494809
 20
440.4302396900973
 30
0.0
 41
1.037954849302037
 10
344.1824912740867
 20
442.3838813446038
 30
0.0
 41
1.0
  0
ARC
  5
6CA
330
77
100
AcDbEntity
  8
Spigoli visibili(ISO)
100
AcDbCircle
 10
349.6060666437525
 20
437.1956096147417
 30
0.0
 40
6.500000000000004
100
AcDbArc
 50
106.2702497908526
 51
166.2702497908525
  0
SPLINE
  5
6CB
330
77
100
AcDbEntity
  8
Spigoli visibili(ISO)
100
AcDbSpline
210
0.0
220
0.0
230
1.0
 70
    28
 71
     2
 72
     6
 73
     3
 74
     0
 42
0.0000000001
 43
0.0000000001
 40
0.3807113172039082
 40
0.3807113172039082
 40
0.3807113172039082
 40
0.7614226344078164
 40
0.7614226344078164
 40
0.7614226344078164
 10
354.0992417635497
 20
441.8925636642121
 30
0.0
 41
1.0
 10
355.3577868079913
 20
440.6886210194108
 30
0.0
 41
1.037954849302037
 10
356.8110294483829
 20
439.298427799281
 30
0.0
 41
1.0
  0
ARC
  5
6CC
330
77
100
AcDbEntity
  8
Spigoli visibili(ISO)
100
AcDbCircle
 10
349.6060666437525
 20
437.1956096147417
 30
0.0
 40
6.500000000000011
100
AcDbArc
 50
346.2702497908525
 51
46.27024979085216
  0
SPLINE
  5
6CD
330
77
100
AcDbEntity
  8
Spigoli visibili(ISO)
100
AcDbSpline
210
0.0
220
0.0
230
1.0
 70
    28
 71
     2
 72
     6
 73
     3
 74
     0
 42
0.0000000001
 43
0.0000000001
 40
0.0
 40
0.0
 40
0.0
 40
0.3807113172039082
 40
0.3807113172039082
 40
0.3807113172039082
 10
356.8110294483829
 20
439.298427799281
 30
0.0
 41
1.0
 10
356.333708123777
 20
437.3447861447744
 30
0.0
 41
1.037954849302047
 10
355.9203357309006
 20
435.6528828420803
 30
0.0
 41
1.0
  0
SPLINE
  5
6CE
330
77
100
AcDbEntity
  8
Spigoli visibili(ISO)
100
AcDbSpline
210
0.0
220
0.0
230
1.0
 70
    28
 71
     2
 72
     6
 73
     3
 74
     0
 42
0.0000000001
 43
0.0000000001
 40
0.3807113172039079
 40
0.3807113172039079
 40
0.3807113172039079
 40
0.7614226344078161
 40
0.7614226344078161
 40
0.7614226344078161
 10
347.7849726764016
 20
443.4352904368735
 30
0.0
 41
1.0
 10
349.4568901137199
 20
443.9232510947664
 30
0.0
 41
1.037954849302044
 10
351.3874540787169
 20
444.4866995291431
 30
0.0
 41
1.0
  0
ARC
  5
6CF
330
77
100
AcDbEntity
  8
Spigoli visibili(ISO)
100
AcDbCircle
 10
349.6060666437525
 20
437.1956096147417
 30
0.0
 40
6.500000000000001
100
AcDbArc
 50
46.27024979085218
 51
106.2702497908518
  0
SPLINE
  5
6D0
330
77
100
AcDbEntity
  8
Spigoli visibili(ISO)
100
AcDbSpline
210
0.0
220
0.0
230
1.0
 70
    28
 71
     2
 72
     6
 73
     3
 74
     0
 42
0.0000000001
 43
0.0000000001
 40
0.0
 40
0.0
 40
0.0
 40
0.3807113172039082
 40
0.3807113172039082
 40
0.3807113172039082
 10
351.3874540787169
 20
444.4866995291431
 30
0.0
 41
1.0
 10
352.840696719108
 20
443.0965063090133
 30
0.0
 41
1.037954849302036
 10
354.0992417635497
 20
441.8925636642121
 30
0.0
 41
1.0
  0
SPLINE
  5
6D1
330
77
100
AcDbEntity
  8
Spigoli visibili(ISO)
100
AcDbSpline
210
0.0
220
0.0
230
1.0
 70
    28
 71
     2
 72
     6
 73
     3
 74
     0
 42
0.0000000001
 43
0.0000000001
 40
0.3807113172039082
 40
0.3807113172039082
 40
0.3807113172039082
 40
0.7614226344078164
 40
0.7614226344078164
 40
0.7614226344078164
 10
351.1561311252413
 20
518.8831378244502
 30
0.0
 41
1.0
 10
349.4647094067884
 20
518.467799298419
 30
0.0
 41
1.037954849302056
 10
347.5116238378647
 20
517.9882076788015
 30
0.0
 41
1.0
  0
ARC
  5
6D2
330
77
100
AcDbEntity
  8
Spigoli visibili(ISO)
100
AcDbCircle
 10
349.6060666437525
 20
525.1956096147418
 30
0.0
 40
6.500000000000004
100
AcDbArc
 50
223.7963421672554
 51
283.7963421672555
  0
SPLINE
  5
6D3
330
77
100
AcDbEntity
  8
Spigoli visibili(ISO)
100
AcDbSpline
210
0.0
220
0.0
230
1.0
 70
    28
 71
     2
 72
     6
 73
     3
 74
     0
 42
0.0000000001
 43
0.0000000001
 40
0.0
 40
0.0
 40
0.0
 40
0.3807113172039086
 40
0.3807113172039086
 40
0.3807113172039086
 10
347.5116238378647
 20
517.9882076788015
 30
0.0
 41
1.0
 10
346.1197425273715
 20
519.4398335874454
 30
0.0
 41
1.037954849302042
 10
344.9143379534318
 20
520.6969785011229
 30
0.0
 41
1.0
  0
SPLINE
  5
6D4
330
77
100
AcDbEntity
  8
Spigoli visibili(ISO)
100
AcDbSpline
210
0.0
220
0.0
230
1.0
 70
    28
 71
     2
 72
     6
 73
     3
 74
     0
 42
0.0000000001
 43
0.0000000001
 40
0.3807113172039082
 40
0.3807113172039082
 40
0.3807113172039082
 40
0.7614226344078164
 40
0.7614226344078164
 40
0.7614226344078164
 10
355.8478598155621
 20
523.3817689380693
 30
0.0
 41
1.0
 10
355.3618426710489
 20
521.7092854983608
 30
0.0
 41
1.037954849302034
 10
354.8006384126182
 20
519.778067970099
 30
0.0
 41
1.0
  0
ARC
  5
6D5
330
77
100
AcDbEntity
  8
Spigoli visibili(ISO)
100
AcDbCircle
 10
349.6060666437525
 20
525.1956096147418
 30
0.0
 40
6.500000000000002
100
AcDbArc
 50
283.7963421672555
 51
343.7963421672554
  0
SPLINE
  5
6D6
330
77
100
AcDbEntity
  8
Spigoli visibili(ISO)
100
AcDbSpline
210
0.0
220
0.0
230
1.0
 70
    28
 71
     2
 72
     6
 73
     3
 74
     0
 42
0.0000000001
 43
0.0000000001
 40
0.0
 40
0.0
 40
0.0
 40
0.3807113172039082
 40
0.3807113172039082
 40
0.3807113172039082
 10
354.8006384126182
 20
519.778067970099
 30
0.0
 41
1.0
 10
352.8475528436942
 20
519.2984763504813
 30
0.0
 41
1.037954849302054
 10
351.1561311252413
 20
518.8831378244502
 30
0.0
 41
1.0
  0
SPLINE
  5
6D7
330
77
100
AcDbEntity
  8
Spigoli visibili(ISO)
100
AcDbSpline
210
0.0
220
0.0
230
1.0
 70
    28
 71
     2
 72
     6
 73
     3
 74
     0
 42
0.0000000001
 43
0.0000000001
 40
0.0
 40
0.0
 40
0.0
 40
0.3807113172039082
 40
0.3807113172039082
 40
0.3807113172039082
 10
342.3170520689991
 20
523.4057493234443
 30
0.0
 41
1.0
 10
342.8782563274299
 20
525.3369668517059
 30
0.0
 41
1.037954849302043
 10
343.364273471943
 20
527.0094502914144
 30
0.0
 41
1.0
  0
SPLINE
  5
6D8
330
77
100
AcDbEntity
  8
Spigoli visibili(ISO)
100
AcDbSpline
210
0.0
220
0.0
230
1.0
 70
    28
 71
     2
 72
     6
 73
     3
 74
     0
 42
0.0000000001
 43
0.0000000001
 40
0.3807113172039086
 40
0.3807113172039086
 40
0.3807113172039086
 40
0.7614226344078171
 40
0.7614226344078171
 40
0.7614226344078171
 10
344.9143379534318
 20
520.6969785011229
 30
0.0
 41
1.0
 10
343.7089333794921
 20
521.9541234148002
 30
0.0
 41
1.037954849302035
 10
342.3170520689991
 20
523.4057493234443
 30
0.0
 41
1.0
  0
ARC
  5
6D9
330
77
100
AcDbEntity
  8
Spigoli visibili(ISO)
100
AcDbCircle
 10
349.6060666437525
 20
525.1956096147418
 30
0.0
 40
6.500000000000005
100
AcDbArc
 50
163.7963421672554
 51
223.7963421672554
  0
SPLINE
  5
6DA
330
77
100
AcDbEntity
  8
Spigoli visibili(ISO)
100
AcDbSpline
210
0.0
220
0.0
230
1.0
 70
    28
 71
     2
 72
     6
 73
     3
 74
     0
 42
0.0000000001
 43
0.0000000001
 40
0.0
 40
0.0
 40
0.0
 40
0.3807113172039079
 40
0.3807113172039079
 40
0.3807113172039079
 10
344.4114948748872
 20
530.6131512593846
 30
0.0
 41
1.0
 10
346.3645804438109
 20
531.0927428790023
 30
0.0
 41
1.037954849302045
 10
348.0560021622638
 20
531.5080814050333
 30
0.0
 41
1.0
  0
SPLINE
  5
6DB
330
77
100
AcDbEntity
  8
Spigoli visibili(ISO)
100
AcDbSpline
210
0.0
220
0.0
230
1.0
 70
    28
 71
     2
 72
     6
 73
     3
 74
     0
 42
0.0000000001
 43
0.0000000001
 40
0.3807113172039082
 40
0.3807113172039082
 40
0.3807113172039082
 40
0.7614226344078164
 40
0.7614226344078164
 40
0.7614226344078164
 10
343.364273471943
 20
527.0094502914144
 30
0.0
 41
1.0
 10
343.8502906164562
 20
528.6819337311228
 30
0.0
 41
1.037954849302037
 10
344.4114948748872
 20
530.6131512593846
 30
0.0
 41
1.0
  0
ARC
  5
6DC
330
77
100
AcDbEntity
  8
Spigoli visibili(ISO)
100
AcDbCircle
 10
349.6060666437525
 20
525.1956096147418
 30
0.0
 40
6.500000000000011
100
AcDbArc
 50
103.7963421672555
 51
163.7963421672554
  0
SPLINE
  5
6DD
330
77
100
AcDbEntity
  8
Spigoli visibili(ISO)
100
AcDbSpline
210
0.0
220
0.0
230
1.0
 70
    28
 71
     2
 72
     6
 73
     3
 74
     0
 42
0.0000000001
 43
0.0000000001
 40
0.3807113172039082
 40
0.3807113172039082
 40
0.3807113172039082
 40
0.7614226344078164
 40
0.7614226344078164
 40
0.7614226344078164
 10
354.2977953340733
 20
529.6942407283608
 30
0.0
 41
1.0
 10
355.5031999080131
 20
528.4370958146835
 30
0.0
 41
1.037954849302037
 10
356.8950812185063
 20
526.9854699060394
 30
0.0
 41
1.0
  0
ARC
  5
6DE
330
77
100
AcDbEntity
  8
Spigoli visibili(ISO)
100
AcDbCircle
 10
349.6060666437525
 20
525.1956096147418
 30
0.0
 40
6.500000000000011
100
AcDbArc
 50
343.7963421672566
 51
43.79634216725631
  0
SPLINE
  5
6DF
330
77
100
AcDbEntity
  8
Spigoli visibili(ISO)
100
AcDbSpline
210
0.0
220
0.0
230
1.0
 70
    28
 71
     2
 72
     6
 73
     3
 74
     0
 42
0.0000000001
 43
0.0000000001
 40
0.0
 40
0.0
 40
0.0
 40
0.3807113172039082
 40
0.3807113172039082
 40
0.3807113172039082
 10
356.8950812185063
 20
526.9854699060394
 30
0.0
 41
1.0
 10
356.3338769600753
 20
525.0542523777777
 30
0.0
 41
1.037954849302047
 10
355.8478598155621
 20
523.3817689380693
 30
0.0
 41
1.0
  0
SPLINE
  5
6E0
330
77
100
AcDbEntity
  8
Spigoli visibili(ISO)
100
AcDbSpline
210
0.0
220
0.0
230
1.0
 70
    28
 71
     2
 72
     6
 73
     3
 74
     0
 42
0.0000000001
 43
0.0000000001
 40
0.3807113172039079
 40
0.3807113172039079
 40
0.3807113172039079
 40
0.7614226344078161
 40
0.7614226344078161
 40
0.7614226344078161
 10
348.0560021622638
 20
531.5080814050333
 30
0.0
 41
1.0
 10
349.7474238807167
 20
531.9234199310645
 30
0.0
 41
1.037954849302044
 10
351.7005094496408
 20
532.4030115506822
 30
0.0
 41
1.0
  0
ARC
  5
6E1
330
77
100
AcDbEntity
  8
Spigoli visibili(ISO)
100
AcDbCircle
 10
349.6060666437525
 20
525.1956096147418
 30
0.0
 40
6.500000000000007
100
AcDbArc
 50
43.79634216725541
 51
103.7963421672555
  0
SPLINE
  5
6E2
330
77
100
AcDbEntity
  8
Spigoli visibili(ISO)
100
AcDbSpline
210
0.0
220
0.0
230
1.0
 70
    28
 71
     2
 72
     6
 73
     3
 74
     0
 42
0.0000000001
 43
0.0000000001
 40
0.0
 40
0.0
 40
0.0
 40
0.3807113172039082
 40
0.3807113172039082
 40
0.3807113172039082
 10
351.7005094496408
 20
532.4030115506822
 30
0.0
 41
1.0
 10
353.0923907601335
 20
530.9513856420381
 30
0.0
 41
1.037954849302036
 10
354.2977953340733
 20
529.6942407283608
 30
0.0
 41
1.0
  0
SPLINE
  5
6E3
330
77
100
AcDbEntity
  8
Spigoli visibili(ISO)
100
AcDbSpline
210
0.0
220
0.0
230
1.0
 70
    28
 71
     2
 72
     6
 73
     3
 74
     0
 42
0.0000000001
 43
0.0000000001
 40
0.3807113172039082
 40
0.3807113172039082
 40
0.3807113172039082
 40
0.7614226344078164
 40
0.7614226344078164
 40
0.7614226344078164
 10
290.3254319160749
 20
432.7259797165964
 30
0.0
 41
1.0
 10
289.1277981944008
 20
431.4614296030901
 30
0.0
 41
1.037954849302056
 10
287.7448898912028
 20
430.0012529062168
 30
0.0
 41
1.0
  0
ARC
  5
6E4
330
77
100
AcDbEntity
  8
Spigoli visibili(ISO)
100
AcDbCircle
 10
285.6060666437524
 20
437.1956096147419
 30
0.0
 40
6.5
100
AcDbArc
 50
256.5567819210168
 51
316.5567819210171
  0
SPLINE
  5
6E5
330
77
100
AcDbEntity
  8
Spigoli visibili(ISO)
100
AcDbSpline
210
0.0
220
0.0
230
1.0
 70
    28
 71
     2
 72
     6
 73
     3
 74
     0
 42
0.0000000001
 43
0.0000000001
 40
0.0
 40
0.0
 40
0.0
 40
0.3807113172039086
 40
0.3807113172039086
 40
0.3807113172039086
 10
287.7448898912028
 20
430.0012529062168
 30
0.0
 41
1.0
 10
285.7888856260972
 20
430.4687982794543
 30
0.0
 41
1.037954849302042
 10
284.0949362426052
 20
430.8737044500998
 30
0.0
 41
1.0
  0
SPLINE
  5
6E6
330
77
100
AcDbEntity
  8
Spigoli visibili(ISO)
100
AcDbSpline
210
0.0
220
0.0
230
1.0
 70
    28
 71
     2
 72
     6
 73
     3
 74
     0
 42
0.0000000001
 43
0.0000000001
 40
0.3807113172039082
 40
0.3807113172039082
 40
0.3807113172039082
 40
0.7614226344078164
 40
0.7614226344078164
 40
0.7614226344078164
 10
291.8365623172221
 20
439.0478848812384
 30
0.0
 41
1.0
 10
292.3328779790401
 20
437.3784285970867
 30
0.0
 41
1.037954849302034
 10
292.9059739409474
 20
435.450706526976
 30
0.0
 41
1.0
  0
ARC
  5
6E7
330
77
100
AcDbEntity
  8
Spigoli visibili(ISO)
100
AcDbCircle
 10
285.6060666437524
 20
437.1956096147419
 30
0.0
 40
6.499999999999993
100
AcDbArc
 50
316.5567819210173
 51
16.5567819210168
  0
SPLINE
  5
6E8
330
77
100
AcDbEntity
  8
Spigoli visibili(ISO)
100
AcDbSpline
210
0.0
220
0.0
230
1.0
 70
    28
 71
     2
 72
     6
 73
     3
 74
     0
 42
0.0000000001
 43
0.0000000001
 40
0.0
 40
0.0
 40
0.0
 40
0.3807113172039082
 40
0.3807113172039082
 40
0.3807113172039082
 10
292.9059739409474
 20
435.450706526976
 30
0.0
 41
1.0
 10
291.523065637749
 20
433.9905298301027
 30
0.0
 41
1.037954849302054
 10
290.3254319160749
 20
432.7259797165964
 30
0.0
 41
1.0
  0
SPLINE
  5
6E9
330
77
100
AcDbEntity
  8
Spigoli visibili(ISO)
100
AcDbSpline
210
0.0
220
0.0
230
1.0
 70
    28
 71
     2
 72
     6
 73
     3
 74
     0
 42
0.0000000001
 43
0.0000000001
 40
0.0
 40
0.0
 40
0.0
 40
0.3807113172039082
 40
0.3807113172039082
 40
0.3807113172039082
 10
280.4449825940079
 20
431.7461559939828
 30
0.0
 41
1.0
 10
279.8718866321006
 20
433.6738780640935
 30
0.0
 41
1.037954849302043
 10
279.3755709702827
 20
435.3433343482453
 30
0.0
 41
1.0
  0
SPLINE
  5
6EA
330
77
100
AcDbEntity
  8
Spigoli visibili(ISO)
100
AcDbSpline
210
0.0
220
0.0
230
1.0
 70
    28
 71
     2
 72
     6
 73
     3
 74
     0
 42
0.0000000001
 43
0.0000000001
 40
0.3807113172039086
 40
0.3807113172039086
 40
0.3807113172039086
 40
0.7614226344078171
 40
0.7614226344078171
 40
0.7614226344078171
 10
284.0949362426052
 20
430.8737044500998
 30
0.0
 41
1.0
 10
282.4009868591132
 20
431.2786106207453
 30
0.0
 41
1.037954849302035
 10
280.4449825940079
 20
431.7461559939828
 30
0.0
 41
1.0
  0
ARC
  5
6EB
330
77
100
AcDbEntity
  8
Spigoli visibili(ISO)
100
AcDbCircle
 10
285.6060666437524
 20
437.1956096147419
 30
0.0
 40
6.500000000000003
100
AcDbArc
 50
196.5567819210167
 51
256.5567819210167
  0
SPLINE
  5
6EC
330
77
100
AcDbEntity
  8
Spigoli visibili(ISO)
100
AcDbSpline
210
0.0
220
0.0
230
1.0
 70
    28
 71
     2
 72
     6
 73
     3
 74
     0
 42
0.0000000001
 43
0.0000000001
 40
0.0
 40
0.0
 40
0.0
 40
0.3807113172039079
 40
0.3807113172039079
 40
0.3807113172039079
 10
278.3061593465578
 20
438.9405127025079
 30
0.0
 41
1.0
 10
279.6890676497559
 20
440.4006893993812
 30
0.0
 41
1.037954849302045
 10
280.8867013714299
 20
441.6652395128874
 30
0.0
 41
1.0
  0
SPLINE
  5
6ED
330
77
100
AcDbEntity
  8
Spigoli visibili(ISO)
100
AcDbSpline
210
0.0
220
0.0
230
1.0
 70
    28
 71
     2
 72
     6
 73
     3
 74
     0
 42
0.0000000001
 43
0.0000000001
 40
0.3807113172039082
 40
0.3807113172039082
 40
0.3807113172039082
 40
0.7614226344078164
 40
0.7614226344078164
 40
0.7614226344078164
 10
279.3755709702827
 20
435.3433343482453
 30
0.0
 41
1.0
 10
278.8792553084648
 20
437.0127906323971
 30
0.0
 41
1.037954849302037
 10
278.3061593465578
 20
438.9405127025079
 30
0.0
 41
1.0
  0
ARC
  5
6EE
330
77
100
AcDbEntity
  8
Spigoli visibili(ISO)
100
AcDbCircle
 10
285.6060666437524
 20
437.1956096147419
 30
0.0
 40
6.500000000000001
100
AcDbArc
 50
136.5567819210171
 51
196.5567819210174
  0
SPLINE
  5
6EF
330
77
100
AcDbEntity
  8
Spigoli visibili(ISO)
100
AcDbSpline
210
0.0
220
0.0
230
1.0
 70
    28
 71
     2
 72
     6
 73
     3
 74
     0
 42
0.0000000001
 43
0.0000000001
 40
0.3807113172039082
 40
0.3807113172039082
 40
0.3807113172039082
 40
0.7614226344078164
 40
0.7614226344078164
 40
0.7614226344078164
 10
287.1171970448997
 20
443.5175147793841
 30
0.0
 41
1.0
 10
288.8111464283917
 20
443.1126086087385
 30
0.0
 41
1.037954849302037
 10
290.7671506934972
 20
442.6450632355011
 30
0.0
 41
1.0
  0
ARC
  5
6F0
330
77
100
AcDbEntity
  8
Spigoli visibili(ISO)
100
AcDbCircle
 10
285.6060666437524
 20
437.1956096147419
 30
0.0
 40
6.500000000000007
100
AcDbArc
 50
16.55678192101671
 51
76.55678192101641
  0
SPLINE
  5
6F1
330
77
100
AcDbEntity
  8
Spigoli visibili(ISO)
100
AcDbSpline
210
0.0
220
0.0
230
1.0
 70
    28
 71
     2
 72
     6
 73
     3
 74
     0
 42
0.0000000001
 43
0.0000000001
 40
0.0
 40
0.0
 40
0.0
 40
0.3807113172039082
 40
0.3807113172039082
 40
0.3807113172039082
 10
290.7671506934972
 20
442.6450632355011
 30
0.0
 41
1.0
 10
291.3402466554043
 20
440.7173411653903
 30
0.0
 41
1.037954849302047
 10
291.8365623172221
 20
439.0478848812384
 30
0.0
 41
1.0
  0
SPLINE
  5
6F2
330
77
100
AcDbEntity
  8
Spigoli visibili(ISO)
100
AcDbSpline
210
0.0
220
0.0
230
1.0
 70
    28
 71
     2
 72
     6
 73
     3
 74
     0
 42
0.0000000001
 43
0.0000000001
 40
0.3807113172039079
 40
0.3807113172039079
 40
0.3807113172039079
 40
0.7614226344078161
 40
0.7614226344078161
 40
0.7614226344078161
 10
280.8867013714299
 20
441.6652395128874
 30
0.0
 41
1.0
 10
282.084335093104
 20
442.9297896263937
 30
0.0
 41
1.037954849302044
 10
283.4672433963025
 20
444.389966323267
 30
0.0
 41
1.0
  0
ARC
  5
6F3
330
77
100
AcDbEntity
  8
Spigoli visibili(ISO)
100
AcDbCircle
 10
285.6060666437524
 20
437.1956096147419
 30
0.0
 40
6.500000000000002
100
AcDbArc
 50
76.55678192101685
 51
136.5567819210166
  0
SPLINE
  5
6F4
330
77
100
AcDbEntity
  8
Spigoli visibili(ISO)
100
AcDbSpline
210
0.0
220
0.0
230
1.0
 70
    28
 71
     2
 72
     6
 73
     3
 74
     0
 42
0.0000000001
 43
0.0000000001
 40
0.0
 40
0.0
 40
0.0
 40
0.3807113172039082
 40
0.3807113172039082
 40
0.3807113172039082
 10
283.4672433963025
 20
444.389966323267
 30
0.0
 41
1.0
 10
285.4232476614077
 20
443.9224209500295
 30
0.0
 41
1.037954849302036
 10
287.1171970448997
 20
443.5175147793841
 30
0.0
 41
1.0
  0
LINE
  5
6F5
330
77
100
AcDbEntity
  8
Spigoli visibili(ISO)
100
AcDbLine
 10
372.6060666437177
 20
440.1956096147418
 30
0.0
 11
372.6060666437155
 21
437.2666774266073
 31
0.0
  0
LINE
  5
6F6
330
77
100
AcDbEntity
  8
Spigoli visibili(ISO)
100
AcDbLine
 10
372.6060666437177
 20
440.1956096147418
 30
0.0
 11
367.6060666437177
 21
440.1956096147418
 31
0.0
  0
LINE
  5
6F7
330
77
100
AcDbEntity
  8
Spigoli visibili(ISO)
100
AcDbLine
 10
367.6060666437155
 20
437.2666774266073
 30
0.0
 11
367.6060666437177
 21
440.1956096147418
 31
0.0
  0
LINE
  5
6F8
330
77
100
AcDbEntity
  8
Spigoli visibili(ISO)
100
AcDbLine
 10
367.6060666437439
 20
518.053216726947
 30
0.0
 11
367.6060666437448
 21
525.1242845388126
 31
0.0
  0
LINE
  5
6F9
330
77
100
AcDbEntity
  8
Spigoli visibili(ISO)
100
AcDbLine
 10
372.6060666437447
 20
525.1242845388126
 30
0.0
 11
372.6060666437439
 21
518.053216726947
 31
0.0
  0
LINE
  5
6FA
330
77
100
AcDbEntity
  8
Spigoli visibili(ISO)
100
AcDbLine
 10
267.6060666437177
 20
440.1956096147418
 30
0.0
 11
267.6060666437156
 21
437.2666774266073
 31
0.0
  0
LINE
  5
6FB
330
77
100
AcDbEntity
  8
Spigoli visibili(ISO)
100
AcDbLine
 10
267.6060666437177
 20
440.1956096147418
 30
0.0
 11
262.6060666437177
 21
440.1956096147418
 31
0.0
  0
LINE
  5
6FC
330
77
100
AcDbEntity
  8
Spigoli visibili(ISO)
100
AcDbLine
 10
262.6060666437155
 20
437.2666774266073
 30
0.0
 11
262.6060666437177
 21
440.1956096147418
 31
0.0
  0
LINE
  5
6FD
330
77
100
AcDbEntity
  8
Spigoli visibili(ISO)
100
AcDbLine
 10
262.6060666437439
 20
518.053216726947
 30
0.0
 11
262.6060666437447
 21
525.1242845388125
 31
0.0
  0
LINE
  5
6FE
330
77
100
AcDbEntity
  8
Spigoli visibili(ISO)
100
AcDbLine
 10
267.6060666437447
 20
525.1242845388125
 30
0.0
 11
267.6060666437439
 21
518.053216726947
 31
0.0
  0
LINE
  5
6FF
330
77
100
AcDbEntity
  8
Spigoli visibili(ISO)
100
AcDbLine
 10
367.6060666437069
 20
408.1956096147417
 30
0.0
 11
367.606066643707
 21
407.6956096147418
 31
0.0
  0
LINE
  5
700
330
77
100
AcDbEntity
  8
Spigoli visibili(ISO)
100
AcDbLine
 10
372.606066643707
 20
407.6956096147418
 30
0.0
 11
372.6060666437069
 21
408.1956096147417
 31
0.0
  0
LINE
  5
701
330
77
100
AcDbEntity
  8
Spigoli visibili(ISO)
100
AcDbLine
 10
367.6060666437069
 20
408.1956096147417
 30
0.0
 11
367.6060666437155
 21
437.2666774266073
 31
0.0
  0
LINE
  5
702
330
77
100
AcDbEntity
  8
Spigoli visibili(ISO)
100
AcDbLine
 10
372.6060666437069
 20
408.1956096147417
 30
0.0
 11
367.6060666437069
 21
408.1956096147417
 31
0.0
  0
LINE
  5
703
330
77
100
AcDbEntity
  8
Spigoli visibili(ISO)
100
AcDbLine
 10
372.6060666437155
 20
437.2666774266073
 30
0.0
 11
372.6060666437069
 21
408.1956096147417
 31
0.0
  0
LINE
  5
704
330
77
100
AcDbEntity
  8
Spigoli visibili(ISO)
100
AcDbLine
 10
372.6060666437438
 20
441.0786096147416
 30
0.0
 11
372.6060666437439
 21
518.053216726947
 31
0.0
  0
LINE
  5
705
330
77
100
AcDbEntity
  8
Spigoli visibili(ISO)
100
AcDbLine
 10
372.6060666437441
 20
440.1956096147418
 30
0.0
 11
372.6060666437438
 21
441.0786096147416
 31
0.0
  0
LINE
  5
706
330
77
100
AcDbEntity
  8
Spigoli visibili(ISO)
100
AcDbLine
 10
367.606066643744
 20
518.053216726947
 30
0.0
 11
367.6060666437438
 21
441.0786096147416
 31
0.0
  0
LINE
  5
707
330
77
100
AcDbEntity
  8
Spigoli visibili(ISO)
100
AcDbLine
 10
372.6060666437438
 20
441.0786096147416
 30
0.0
 11
367.6060666437438
 21
441.0786096147416
 31
0.0
  0
LINE
  5
708
330
77
100
AcDbEntity
  8
Spigoli visibili(ISO)
100
AcDbLine
 10
362.6060666437543
 20
410.1956096147419
 30
0.0
 11
365.1060666437543
 21
410.1956096147418
 31
0.0
  0
LINE
  5
709
330
77
100
AcDbEntity
  8
Spigoli visibili(ISO)
100
AcDbLine
 10
367.6060666437438
 20
441.0786096147416
 30
0.0
 11
367.606066643744
 21
440.1956096147418
 31
0.0
  0
LINE
  5
70A
330
77
100
AcDbEntity
  8
Spigoli visibili(ISO)
100
AcDbLine
 10
372.6060666437538
 20
555.1956096147419
 30
0.0
 11
372.6060666437448
 21
525.1242845388126
 31
0.0
  0
LINE
  5
70B
330
77
100
AcDbEntity
  8
Spigoli visibili(ISO)
100
AcDbLine
 10
367.6060666437538
 20
555.1956096147419
 30
0.0
 11
372.6060666437538
 21
555.1956096147419
 31
0.0
  0
LINE
  5
70C
330
77
100
AcDbEntity
  8
Spigoli visibili(ISO)
100
AcDbLine
 10
367.6060666437448
 20
525.1242845388126
 30
0.0
 11
367.6060666437538
 21
555.1956096147419
 31
0.0
  0
LINE
  5
70D
330
77
100
AcDbEntity
  8
Spigoli visibili(ISO)
100
AcDbLine
 10
262.6060666437069
 20
407.6956096147418
 30
0.0
 11
262.6060666437069
 21
408.1956096147417
 31
0.0
  0
LINE
  5
70E
330
77
100
AcDbEntity
  8
Spigoli visibili(ISO)
100
AcDbLine
 10
262.6060666437069
 20
408.1956096147417
 30
0.0
 11
262.6060666437155
 21
437.2666774266073
 31
0.0
  0
LINE
  5
70F
330
77
100
AcDbEntity
  8
Spigoli visibili(ISO)
100
AcDbLine
 10
270.1060666437545
 20
407.6956096147418
 30
0.0
 11
270.1060666437537
 21
405.1956096147418
 31
0.0
  0
LINE
  5
710
330
77
100
AcDbEntity
  8
Spigoli visibili(ISO)
100
AcDbLine
 10
267.6060666437069
 20
408.1956096147417
 30
0.0
 11
262.6060666437069
 21
408.1956096147417
 31
0.0
  0
LINE
  5
711
330
77
100
AcDbEntity
  8
Spigoli visibili(ISO)
100
AcDbLine
 10
267.6060666437156
 20
437.2666774266073
 30
0.0
 11
267.6060666437069
 21
408.1956096147417
 31
0.0
  0
LINE
  5
712
330
77
100
AcDbEntity
  8
Spigoli visibili(ISO)
100
AcDbLine
 10
267.6060666437069
 20
408.1956096147417
 30
0.0
 11
267.6060666437069
 21
407.6956096147418
 31
0.0
  0
ARC
  5
713
330
77
100
AcDbEntity
  8
Spigoli visibili(ISO)
100
AcDbCircle
 10
270.1060666437069
 20
407.6956096147418
 30
0.0
 40
2.500000000000003
100
AcDbArc
 50
180.0
 51
270.0000000000017
  0
ARC
  5
714
330
77
100
AcDbEntity
  8
Spigoli visibili(ISO)
100
AcDbCircle
 10
270.1060666437069
 20
407.6956096147418
 30
0.0
 40
7.499999999999994
100
AcDbArc
 50
180.0
 51
270.0000000000008
  0
LINE
  5
715
330
77
100
AcDbEntity
  8
Spigoli visibili(ISO)
100
AcDbLine
 10
267.6060666437439
 20
518.0532167269469
 30
0.0
 11
267.606066643744
 21
441.0786096147416
 31
0.0
  0
LINE
  5
716
330
77
100
AcDbEntity
  8
Spigoli visibili(ISO)
100
AcDbLine
 10
267.606066643744
 20
441.0786096147416
 30
0.0
 11
267.6060666437442
 21
440.1956096147418
 31
0.0
  0
LINE
  5
717
330
77
100
AcDbEntity
  8
Spigoli visibili(ISO)
100
AcDbLine
 10
262.6060666437439
 20
441.0786096147416
 30
0.0
 11
262.6060666437439
 21
518.0532167269469
 31
0.0
  0
LINE
  5
718
330
77
100
AcDbEntity
  8
Spigoli visibili(ISO)
100
AcDbLine
 10
262.6060666437439
 20
441.0786096147416
 30
0.0
 11
267.606066643744
 21
441.0786096147416
 31
0.0
  0
LINE
  5
719
330
77
100
AcDbEntity
  8
Spigoli visibili(ISO)
100
AcDbLine
 10
270.1060666437545
 20
410.1956096147418
 30
0.0
 11
272.6060666437545
 21
410.1956096147419
 31
0.0
  0
LINE
  5
71A
330
77
100
AcDbEntity
  8
Spigoli visibili(ISO)
100
AcDbLine
 10
262.6060666437441
 20
440.1956096147418
 30
0.0
 11
262.6060666437439
 21
441.0786096147416
 31
0.0
  0
LINE
  5
71B
330
77
100
AcDbEntity
  8
Spigoli visibili(ISO)
100
AcDbLine
 10
267.6060666437536
 20
555.1956096147419
 30
0.0
 11
267.6060666437447
 21
525.1242845388125
 31
0.0
  0
LINE
  5
71C
330
77
100
AcDbEntity
  8
Spigoli visibili(ISO)
100
AcDbLine
 10
262.6060666437536
 20
555.1956096147419
 30
0.0
 11
267.6060666437536
 21
555.1956096147419
 31
0.0
  0
LINE
  5
71D
330
77
100
AcDbEntity
  8
Spigoli visibili(ISO)
100
AcDbLine
 10
262.6060666437447
 20
525.1242845388125
 30
0.0
 11
262.6060666437536
 21
555.1956096147419
 31
0.0
  0
LINE
  5
71E
330
77
100
AcDbEntity
  8
Spigoli visibili(ISO)
100
AcDbLine
 10
270.1060666437543
 20
555.1956096147419
 30
0.0
 11
267.6060666437536
 21
555.1956096147419
 31
0.0
  0
LINE
  5
71F
330
77
100
AcDbEntity
  8
Spigoli visibili(ISO)
100
AcDbLine
 10
267.6060666437537
 20
410.1956096147418
 30
0.0
 11
270.1060666437545
 21
410.1956096147418
 31
0.0
  0
LINE
  5
720
330
77
100
AcDbEntity
  8
Spigoli visibili(ISO)
100
AcDbLine
 10
272.6060666437545
 20
407.6956096147419
 30
0.0
 11
270.1060666437545
 21
407.6956096147418
 31
0.0
  0
LINE
  5
721
330
77
100
AcDbEntity
  8
Spigoli visibili(ISO)
100
AcDbLine
 10
272.6060666437545
 20
410.1956096147419
 30
0.0
 11
272.6060666437545
 21
407.6956096147419
 31
0.0
  0
LINE
  5
722
330
77
100
AcDbEntity
  8
Spigoli visibili(ISO)
100
AcDbLine
 10
270.1060666437544
 20
555.1956096147419
 30
0.0
 11
365.1060666437545
 21
555.1956096147419
 31
0.0
  0
LINE
  5
723
330
77
100
AcDbEntity
  8
Spigoli visibili(ISO)
100
AcDbLine
 10
367.6060666437538
 20
555.1956096147419
 30
0.0
 11
365.1060666437546
 21
555.1956096147419
 31
0.0
  0
LINE
  5
724
330
77
100
AcDbEntity
  8
Spigoli visibili(ISO)
100
AcDbLine
 10
362.6060666437543
 20
407.6956096147418
 30
0.0
 11
362.6060666437543
 21
410.1956096147419
 31
0.0
  0
LINE
  5
725
330
77
100
AcDbEntity
  8
Spigoli visibili(ISO)
100
AcDbLine
 10
365.1060666437543
 20
407.6956096147418
 30
0.0
 11
362.6060666437543
 21
407.6956096147418
 31
0.0
  0
LINE
  5
726
330
77
100
AcDbEntity
  8
Spigoli visibili(ISO)
100
AcDbLine
 10
365.1060666437543
 20
410.1956096147418
 30
0.0
 11
367.6060666437535
 21
410.1956096147418
 31
0.0
  0
LINE
  5
727
330
77
100
AcDbEntity
  8
Spigoli visibili(ISO)
100
AcDbLine
 10
365.1060666437536
 20
405.1956096147418
 30
0.0
 11
365.1060666437543
 21
407.6956096147418
 31
0.0
  0
ARC
  5
728
330
77
100
AcDbEntity
  8
Spigoli visibili(ISO)
100
AcDbCircle
 10
365.106066643707
 20
407.6956096147418
 30
0.0
 40
2.500000000000002
100
AcDbArc
 50
269.9999999999984
 51
0.0
  0
ARC
  5
729
330
77
100
AcDbEntity
  8
Spigoli visibili(ISO)
100
AcDbCircle
 10
365.106066643707
 20
407.6956096147418
 30
0.0
 40
7.499999999999998
100
AcDbArc
 50
269.9999999999994
 51
0.0
  0
LINE
  5
72A
330
77
100
AcDbEntity
  8
Spigoli visibili(ISO)
100
AcDbLine
 10
365.1060666437069
 20
405.1956096147418
 30
0.0
 11
270.1060666437069
 21
405.1956096147418
 31
0.0
  0
LINE
  5
72B
330
77
100
AcDbEntity
  8
Spigoli visibili(ISO)
100
AcDbLine
 10
365.1060666437069
 20
400.1956096147418
 30
0.0
 11
270.1060666437069
 21
400.1956096147418
 31
0.0
  0
SPLINE
  5
72C
330
77
100
AcDbEntity
  8
Spigoli visibili(ISO)
100
AcDbSpline
210
0.0
220
0.0
230
1.0
 70
    28
 71
     2
 72
     6
 73
     3
 74
     0
 42
0.0000000001
 43
0.0000000001
 40
0.0
 40
0.0
 40
0.0
 40
7.596804552401591
 40
7.596804552401591
 40
7.596804552401591
 10
56.4043415149835
 20
316.2579491748811
 30
0.0
 41
1.0
 10
52.67255148939752
 20
315.852508343887
 30
0.0
 41
1.154700538379265
 10
48.94076146381159
 20
315.4470675128921
 30
0.0
 41
1.0
  0
SPLINE
  5
72D
330
77
100
AcDbEntity
  8
Spigoli visibili(ISO)
100
AcDbSpline
210
0.0
220
0.0
230
1.0
 70
    28
 71
     2
 72
     6
 73
     3
 74
     0
 42
0.0000000001
 43
0.0000000001
 40
0.0
 40
0.0
 40
0.0
 40
7.596804552401592
 40
7.596804552401592
 40
7.596804552401592
 10
48.94076146381167
 20
315.4470675128922
 30
0.0
 41
1.0
 10
47.4259885103913
 20
312.0125221336485
 30
0.0
 41
1.154700538379265
 10
45.911215556971
 20
308.5779767544042
 30
0.0
 41
1.0
  0
SPLINE
  5
72E
330
77
100
AcDbEntity
  8
Spigoli visibili(ISO)
100
AcDbSpline
210
0.0
220
0.0
230
1.0
 70
    28
 71
     2
 72
     6
 73
     3
 74
     0
 42
0.0000000001
 43
0.0000000001
 40
0.0
 40
0.0
 40
0.0
 40
7.596804552401745
 40
7.596804552401745
 40
7.596804552401745
 10
45.91121555697099
 20
308.5779767544043
 30
0.0
 41
1.0
 10
48.12823262913668
 20
305.548872206155
 30
0.0
 41
1.154700538379257
 10
50.34524970130232
 20
302.519767657905
 30
0.0
 41
1.0
  0
SPLINE
  5
72F
330
77
100
AcDbEntity
  8
Spigoli visibili(ISO)
100
AcDbSpline
210
0.0
220
0.0
230
1.0
 70
    28
 71
     2
 72
     6
 73
     3
 74
     0
 42
0.0000000001
 43
0.0000000001
 40
0.0
 40
0.0
 40
0.0
 40
7.596804552401591
 40
7.596804552401591
 40
7.596804552401591
 10
50.34524970130225
 20
302.519767657905
 30
0.0
 41
1.0
 10
54.07703972688815
 20
302.9252084888997
 30
0.0
 41
1.154700538379265
 10
57.80882975247411
 20
303.3306493198939
 30
0.0
 41
1.0
  0
SPLINE
  5
730
330
77
100
AcDbEntity
  8
Spigoli visibili(ISO)
100
AcDbSpline
210
0.0
220
0.0
230
1.0
 70
    28
 71
     2
 72
     6
 73
     3
 74
     0
 42
0.0000000001
 43
0.0000000001
 40
0.0
 40
0.0
 40
0.0
 40
7.596804552401553
 40
7.596804552401553
 40
7.596804552401553
 10
57.80882975247405
 20
303.3306493198939
 30
0.0
 41
1.0
 10
59.32360270589437
 20
306.7651946991382
 30
0.0
 41
1.154700538379265
 10
60.83837565931474
 20
310.1997400783818
 30
0.0
 41
1.0
  0
SPLINE
  5
731
330
77
100
AcDbEntity
  8
Spigoli visibili(ISO)
100
AcDbSpline
210
0.0
220
0.0
230
1.0
 70
    28
 71
     2
 72
     6
 73
     3
 74
     0
 42
0.0000000001
 43
0.0000000001
 40
0.0
 40
0.0
 40
0.0
 40
7.596804552401745
 40
7.596804552401745
 40
7.596804552401745
 10
60.83837565931472
 20
310.1997400783818
 30
0.0
 41
1.0
 10
58.62135858714906
 20
313.2288446266318
 30
0.0
 41
1.154700538379257
 10
56.4043415149834
 20
316.2579491748811
 30
0.0
 41
1.0
  0
CIRCLE
  5
732
330
77
100
AcDbEntity
  8
Spigoli visibili(ISO)
100
AcDbCircle
 10
53.37479560814284
 20
309.3888584163932
 30
0.0
 40
6.49999999999998
  0
SPLINE
  5
733
330
77
100
AcDbEntity
  8
Spigoli visibili(ISO)
100
AcDbSpline
210
0.0
220
0.0
230
1.0
 70
    28
 71
     2
 72
     6
 73
     3
 74
     0
 42
0.0000000001
 43
0.0000000001
 40
0.0
 40
0.0
 40
0.0
 40
7.596804552401591
 40
7.596804552401591
 40
7.596804552401591
 10
85.89694631336275
 20
308.722280458044
 30
0.0
 41
1.0
 10
88.05504535982439
 20
305.650921220156
 30
0.0
 41
1.154700538379265
 10
90.21314440628604
 20
302.5795619822674
 30
0.0
 41
1.0
  0
SPLINE
  5
734
330
77
100
AcDbEntity
  8
Spigoli visibili(ISO)
100
AcDbSpline
210
0.0
220
0.0
230
1.0
 70
    28
 71
     2
 72
     6
 73
     3
 74
     0
 42
0.0000000001
 43
0.0000000001
 40
0.0
 40
0.0
 40
0.0
 40
7.596804552401592
 40
7.596804552401592
 40
7.596804552401592
 10
90.21314440628593
 20
302.5795619822675
 30
0.0
 41
1.0
 10
93.95206905367599
 20
302.9128509614423
 30
0.0
 41
1.154700538379265
 10
97.69099370106605
 20
303.2461399406165
 30
0.0
 41
1.0
  0
SPLINE
  5
735
330
77
100
AcDbEntity
  8
Spigoli visibili(ISO)
100
AcDbSpline
210
0.0
220
0.0
230
1.0
 70
    28
 71
     2
 72
     6
 73
     3
 74
     0
 42
0.0000000001
 43
0.0000000001
 40
0.0
 40
0.0
 40
0.0
 40
7.596804552401745
 40
7.596804552401745
 40
7.596804552401745
 10
97.690993701066
 20
303.2461399406165
 30
0.0
 41
1.0
 10
99.27181930199445
 20
306.6507881576798
 30
0.0
 41
1.154700538379257
 10
100.852644902923
 20
310.0554363747424
 30
0.0
 41
1.0
  0
SPLINE
  5
736
330
77
100
AcDbEntity
  8
Spigoli visibili(ISO)
100
AcDbSpline
210
0.0
220
0.0
230
1.0
 70
    28
 71
     2
 72
     6
 73
     3
 74
     0
 42
0.0000000001
 43
0.0000000001
 40
0.0
 40
0.0
 40
0.0
 40
7.596804552401591
 40
7.596804552401591
 40
7.596804552401591
 10
100.852644902923
 20
310.0554363747423
 30
0.0
 41
1.0
 10
98.69454585646138
 20
313.1267956126309
 30
0.0
 41
1.154700538379265
 10
96.53644680999978
 20
316.1981548505188
 30
0.0
 41
1.0
  0
SPLINE
  5
737
330
77
100
AcDbEntity
  8
Spigoli visibili(ISO)
100
AcDbSpline
210
0.0
220
0.0
230
1.0
 70
    28
 71
     2
 72
     6
 73
     3
 74
     0
 42
0.0000000001
 43
0.0000000001
 40
0.0
 40
0.0
 40
0.0
 40
7.596804552401553
 40
7.596804552401553
 40
7.596804552401553
 10
96.53644680999986
 20
316.1981548505188
 30
0.0
 41
1.0
 10
92.7975221626098
 20
315.8648658713445
 30
0.0
 41
1.154700538379265
 10
89.05859751521973
 20
315.5315768921697
 30
0.0
 41
1.0
  0
SPLINE
  5
738
330
77
100
AcDbEntity
  8
Spigoli visibili(ISO)
100
AcDbSpline
210
0.0
220
0.0
230
1.0
 70
    28
 71
     2
 72
     6
 73
     3
 74
     0
 42
0.0000000001
 43
0.0000000001
 40
0.0
 40
0.0
 40
0.0
 40
7.596804552401745
 40
7.596804552401745
 40
7.596804552401745
 10
89.0585975152198
 20
315.5315768921697
 30
0.0
 41
1.0
 10
87.47777191429129
 20
312.1269286751072
 30
0.0
 41
1.154700538379257
 10
85.89694631336278
 20
308.7222804580439
 30
0.0
 41
1.0
  0
CIRCLE
  5
739
330
77
100
AcDbEntity
  8
Spigoli visibili(ISO)
100
AcDbCircle
 10
93.37479560814291
 20
309.3888584163933
 30
0.0
 40
6.499999999999984
  0
CIRCLE
  5
73A
330
77
100
AcDbEntity
  8
Spigoli visibili(ISO)
100
AcDbCircle
 10
93.37479560814287
 20
309.3888584163971
 30
0.0
 40
4.000000000000023
  0
CIRCLE
  5
73B
330
77
100
AcDbEntity
  8
Spigoli visibili(ISO)
100
AcDbCircle
 10
93.37479560814287
 20
309.3888584163974
 30
0.0
 40
3.23318750000002
  0
LINE
  5
73C
330
77
100
AcDbEntity
  8
Spigoli visibili(ISO)
100
AcDbLine
 10
86.87479560814287
 20
313.1416351661224
 30
0.0
 11
86.87479560814287
 21
310.828289404299
 31
0.0
  0
LINE
  5
73D
330
77
100
AcDbEntity
  8
Spigoli visibili(ISO)
100
AcDbLine
 10
86.87479560814285
 20
307.3306267850039
 30
0.0
 11
86.87479560814285
 21
305.6360816666572
 31
0.0
  0
LINE
  5
73E
330
77
100
AcDbEntity
  8
Spigoli visibili(ISO)
100
AcDbLine
 10
86.87479560814285
 20
305.6360816666572
 30
0.0
 11
88.16902424220309
 21
304.8888584163896
 31
0.0
  0
LINE
  5
73F
330
77
100
AcDbEntity
  8
Spigoli visibili(ISO)
100
AcDbLine
 10
98.58056697408271
 20
304.8888584163896
 30
0.0
 11
99.87479560814287
 21
305.6360816666572
 31
0.0
  0
LINE
  5
740
330
77
100
AcDbEntity
  8
Spigoli visibili(ISO)
100
AcDbLine
 10
99.87479560814287
 20
305.6360816666572
 30
0.0
 11
99.87479560814287
 21
307.9494274284812
 31
0.0
  0
LINE
  5
741
330
77
100
AcDbEntity
  8
Spigoli visibili(ISO)
100
AcDbLine
 10
99.87479560814291
 20
311.4470900477757
 30
0.0
 11
99.87479560814291
 21
313.1416351661223
 31
0.0
  0
LINE
  5
742
330
77
100
AcDbEntity
  8
Spigoli visibili(ISO)
100
AcDbLine
 10
99.87479560814291
 20
313.1416351661223
 30
0.0
 11
98.58056697408317
 21
313.8888584163896
 31
0.0
  0
LINE
  5
743
330
77
100
AcDbEntity
  8
Spigoli visibili(ISO)
100
AcDbLine
 10
88.16902424220257
 20
313.8888584163897
 30
0.0
 11
86.87479560814287
 21
313.1416351661224
 31
0.0
  0
CIRCLE
  5
744
330
77
100
AcDbEntity
  8
Spigoli visibili(ISO)
100
AcDbCircle
 10
53.37479560814286
 20
309.3888584163969
 30
0.0
 40
3.999999999999999
  0
CIRCLE
  5
745
330
77
100
AcDbEntity
  8
Spigoli visibili(ISO)
100
AcDbCircle
 10
53.37479560814286
 20
309.3888584163972
 30
0.0
 40
3.233187500000001
  0
LINE
  5
746
330
77
100
AcDbEntity
  8
Spigoli visibili(ISO)
100
AcDbLine
 10
58.58056697408288
 20
304.8888584163896
 30
0.0
 11
59.8747956081428
 21
305.6360816666571
 31
0.0
  0
LINE
  5
747
330
77
100
AcDbEntity
  8
Spigoli visibili(ISO)
100
AcDbLine
 10
59.8747956081428
 20
305.6360816666571
 30
0.0
 11
59.87479560814282
 21
308.0149509950956
 31
0.0
  0
LINE
  5
748
330
77
100
AcDbEntity
  8
Spigoli visibili(ISO)
100
AcDbLine
 10
59.87479560814282
 20
311.5162769477839
 30
0.0
 11
59.87479560814282
 21
313.1416351661222
 31
0.0
  0
LINE
  5
749
330
77
100
AcDbEntity
  8
Spigoli visibili(ISO)
100
AcDbLine
 10
59.87479560814282
 20
313.1416351661222
 30
0.0
 11
58.58056697408286
 21
313.8888584163896
 31
0.0
  0
SPLINE
  5
74A
330
77
100
AcDbEntity
  8
Spigoli visibili(ISO)
100
AcDbSpline
210
0.0
220
0.0
230
1.0
 70
    12
 71
     2
 72
     6
 73
     3
 74
     0
 42
0.0000000001
 43
0.0000000001
 40
0.3807113172039082
 40
0.3807113172039082
 40
0.3807113172039082
 40
0.7614226344078164
 40
0.7614226344078164
 40
0.7614226344078164
 10
185.4747956081429
 20
343.2936831079052
 30
0.0
 41
1.0
 10
185.4747956081429
 20
341.6284776547268
 30
0.0
 41
1.037954849302056
 10
186.0553521917436
 20
339.7056640214298
 30
0.0
 41
1.0
  0
LINE
  5
74B
330
77
100
AcDbEntity
  8
Spigoli visibili(ISO)
100
AcDbLine
 10
185.4747956081429
 20
343.2936831079052
 30
0.0
 11
185.4747956081429
 21
336.959242132453
 31
0.0
  0
SPLINE
  5
74C
330
77
100
AcDbEntity
  8
Spigoli visibili(ISO)
100
AcDbSpline
210
0.0
220
0.0
230
1.0
 70
    12
 71
     2
 72
     6
 73
     3
 74
     0
 42
0.0000000001
 43
0.0000000001
 40
0.0
 40
0.0
 40
0.0
 40
0.3807113172039086
 40
0.3807113172039086
 40
0.3807113172039086
 10
186.0553521917436
 20
339.7056640214298
 30
0.0
 41
1.0
 10
185.4747956081429
 20
338.2338609669768
 30
0.0
 41
1.037954849302042
 10
185.4747956081429
 20
336.959242132453
 30
0.0
 41
1.0
  0
SPLINE
  5
74D
330
77
100
AcDbEntity
  8
Spigoli visibili(ISO)
100
AcDbSpline
210
0.0
220
0.0
230
1.0
 70
    12
 71
     2
 72
     6
 73
     3
 74
     0
 42
0.0000000001
 43
0.0000000001
 40
0.3807113172039082
 40
0.3807113172039082
 40
0.3807113172039082
 40
0.7614226344078164
 40
0.7614226344078164
 40
0.7614226344078164
 10
185.4747956081429
 20
347.723299391879
 30
0.0
 41
1.0
 10
185.4747956081429
 20
347.3327127732245
 30
0.0
 41
1.037954849302034
 10
186.0553521917436
 20
346.8817021943805
 30
0.0
 41
1.0
  0
LINE
  5
74E
330
77
100
AcDbEntity
  8
Spigoli visibili(ISO)
100
AcDbLine
 10
185.4747956081429
 20
347.723299391879
 30
0.0
 11
185.4747956081429
 21
343.2936831079052
 31
0.0
  0
SPLINE
  5
74F
330
77
100
AcDbEntity
  8
Spigoli visibili(ISO)
100
AcDbSpline
210
0.0
220
0.0
230
1.0
 70
    12
 71
     2
 72
     6
 73
     3
 74
     0
 42
0.0000000001
 43
0.0000000001
 40
0.0
 40
0.0
 40
0.0
 40
0.3807113172039082
 40
0.3807113172039082
 40
0.3807113172039082
 10
186.0553521917436
 20
346.8817021943805
 30
0.0
 41
1.0
 10
185.4747956081429
 20
344.9588885610834
 30
0.0
 41
1.037954849302054
 10
185.4747956081429
 20
343.2936831079052
 30
0.0
 41
1.0
  0
SPLINE
  5
750
330
77
100
AcDbEntity
  8
Spigoli visibili(ISO)
100
AcDbSpline
210
0.0
220
0.0
230
1.0
 70
    12
 71
     2
 72
     6
 73
     3
 74
     0
 42
0.0000000001
 43
0.0000000001
 40
0.0
 40
0.0
 40
0.0
 40
0.2227913713395424
 40
0.2227913713395424
 40
0.2227913713395424
 10
186.0553521917436
 20
334.2128202434762
 30
0.0
 41
1.0
 10
185.7103792688347
 20
334.4808155466759
 30
0.0
 41
1.022211088935028
 10
185.5728794107137
 20
334.7189722869746
 30
0.0
 41
1.01842642340117
  0
SPLINE
  5
751
330
77
100
AcDbEntity
  8
Spigoli visibili(ISO)
100
AcDbSpline
210
0.0
220
0.0
230
1.0
 70
    12
 71
     2
 72
     6
 73
     3
 74
     0
 42
0.0000000001
 43
0.0000000001
 40
0.3807113172039086
 40
0.3807113172039086
 40
0.3807113172039086
 40
0.7614226344078171
 40
0.7614226344078171
 40
0.7614226344078171
 10
185.4747956081429
 20
336.959242132453
 30
0.0
 41
1.0
 10
185.4747956081429
 20
335.6846232979291
 30
0.0
 41
1.037954849302035
 10
186.0553521917436
 20
334.2128202434762
 30
0.0
 41
1.0
  0
LINE
  5
752
330
77
100
AcDbEntity
  8
Spigoli visibili(ISO)
100
AcDbLine
 10
185.4747956081429
 20
336.959242132453
 30
0.0
 11
185.4747956081429
 21
334.8888584164269
 31
0.0
  0
LINE
  5
753
330
77
100
AcDbEntity
  8
Spigoli visibili(ISO)
100
AcDbLine
 10
185.4747956081429
 20
347.8888584164269
 30
0.0
 11
185.4747956081429
 21
347.723299391879
 31
0.0
  0
SPLINE
  5
754
330
77
100
AcDbEntity
  8
Spigoli visibili(ISO)
100
AcDbSpline
210
0.0
220
0.0
230
1.0
 70
    12
 71
     2
 72
     6
 73
     3
 74
     0
 42
0.0000000001
 43
0.0000000001
 40
0.0
 40
0.0
 40
0.0
 40
0.3807113172039082
 40
0.3807113172039082
 40
0.3807113172039082
 10
186.0553521917436
 20
348.5648965893776
 30
0.0
 41
1.0
 10
185.4747956081429
 20
348.1138860105336
 30
0.0
 41
1.037954849302047
 10
185.4747956081429
 20
347.723299391879
 30
0.0
 41
1.0
  0
LINE
  5
755
330
77
100
AcDbEntity
  8
Spigoli visibili(ISO)
100
AcDbLine
 10
185.4747956081429
 20
334.8888584164269
 30
0.0
 11
185.5728794107137
 21
334.7189722869746
 31
0.0
  0
LINE
  5
756
330
77
100
AcDbEntity
  8
Spigoli visibili(ISO)
100
AcDbLine
 10
185.4747956081429
 20
347.8888584164269
 30
0.0
 11
185.5728794107137
 21
348.0587445458791
 31
0.0
  0
LINE
  5
757
330
77
100
AcDbEntity
  8
Spigoli visibili(ISO)
100
AcDbLine
 10
186.0553521917436
 20
348.5648965893776
 30
0.0
 11
190.7747956081428
 21
348.5648965893776
 31
0.0
  0
LINE
  5
758
330
77
100
AcDbEntity
  8
Spigoli visibili(ISO)
100
AcDbLine
 10
186.0553521917436
 20
346.8817021943805
 30
0.0
 11
190.7747956081428
 21
346.8817021943805
 31
0.0
  0
LINE
  5
759
330
77
100
AcDbEntity
  8
Spigoli visibili(ISO)
100
AcDbLine
 10
190.7747956081428
 20
346.8817021943805
 30
0.0
 11
190.7747956081428
 21
348.5648965893776
 31
0.0
  0
LINE
  5
75A
330
77
100
AcDbEntity
  8
Spigoli visibili(ISO)
100
AcDbLine
 10
186.0553521917436
 20
339.7056640214298
 30
0.0
 11
190.7747956081428
 21
339.7056640214298
 31
0.0
  0
LINE
  5
75B
330
77
100
AcDbEntity
  8
Spigoli visibili(ISO)
100
AcDbLine
 10
190.7747956081428
 20
339.7056640214298
 30
0.0
 11
190.7747956081428
 21
346.8817021943805
 31
0.0
  0
LINE
  5
75C
330
77
100
AcDbEntity
  8
Spigoli visibili(ISO)
100
AcDbLine
 10
186.0553521917436
 20
334.2128202434762
 30
0.0
 11
190.7747956081428
 21
334.2128202434762
 31
0.0
  0
LINE
  5
75D
330
77
100
AcDbEntity
  8
Spigoli visibili(ISO)
100
AcDbLine
 10
190.7747956081428
 20
334.2128202434762
 30
0.0
 11
190.7747956081428
 21
339.7056640214298
 31
0.0
  0
LINE
  5
75E
330
77
100
AcDbEntity
  8
Spigoli visibili(ISO)
100
AcDbLine
 10
241.3747956081428
 20
344.888858416427
 30
0.0
 11
241.3747956081428
 21
337.888858416427
 31
0.0
  0
LINE
  5
75F
330
77
100
AcDbEntity
  8
Spigoli visibili(ISO)
100
AcDbLine
 10
240.8747956081428
 20
337.388858416427
 30
0.0
 11
240.8747956081428
 21
345.3888584164269
 31
0.0
  0
LINE
  5
760
330
77
100
AcDbEntity
  8
Spigoli visibili(ISO)
100
AcDbLine
 10
241.3747956081428
 20
337.888858416427
 30
0.0
 11
240.8747956081428
 21
337.388858416427
 31
0.0
  0
LINE
  5
761
330
77
100
AcDbEntity
  8
Spigoli visibili(ISO)
100
AcDbLine
 10
241.3747956081428
 20
344.888858416427
 30
0.0
 11
240.8747956081428
 21
345.3888584164269
 31
0.0
  0
LINE
  5
762
330
77
100
AcDbEntity
  8
Spigoli visibili(ISO)
100
AcDbLine
 10
197.9747956081428
 20
345.3888584164269
 30
0.0
 11
240.8747956081428
 21
345.3888584164269
 31
0.0
  0
LINE
  5
763
330
77
100
AcDbEntity
  8
Spigoli visibili(ISO)
100
AcDbLine
 10
197.9747956081428
 20
337.3888584164269
 30
0.0
 11
240.8747956081428
 21
337.388858416427
 31
0.0
  0
LINE
  5
764
330
77
100
AcDbEntity
  8
Spigoli visibili(ISO)
100
AcDbLine
 10
190.7747956081428
 20
347.2038584164269
 30
0.0
 11
191.3747956081429
 21
347.2038584164269
 31
0.0
  0
LINE
  5
765
330
77
100
AcDbEntity
  8
Spigoli visibili(ISO)
100
AcDbLine
 10
190.7747956081428
 20
335.5738584164269
 30
0.0
 11
191.3747956081429
 21
335.5738584164269
 31
0.0
  0
SPLINE
  5
766
330
77
100
AcDbEntity
  8
Spigoli visibili(ISO)
100
AcDbSpline
210
0.0
220
0.0
230
1.0
 70
    12
 71
     2
 72
     6
 73
     3
 74
     0
 42
0.0000000001
 43
0.0000000001
 40
0.0
 40
0.0
 40
0.0
 40
0.3807113172039082
 40
0.3807113172039082
 40
0.3807113172039082
 10
186.0553521917436
 20
284.6778729911799
 30
0.0
 41
1.0
 10
185.4747956081429
 20
284.1166687327497
 30
0.0
 41
1.037954849302043
 10
185.4747956081429
 20
283.630651588237
 30
0.0
 41
1.0
  0
LINE
  5
767
330
77
100
AcDbEntity
  8
Spigoli visibili(ISO)
100
AcDbLine
 10
185.4747956081429
 20
283.888858416427
 30
0.0
 11
185.4747956081429
 21
283.630651588237
 31
0.0
  0
SPLINE
  5
768
330
77
100
AcDbEntity
  8
Spigoli visibili(ISO)
100
AcDbSpline
210
0.0
220
0.0
230
1.0
 70
    12
 71
     2
 72
     6
 73
     3
 74
     0
 42
0.0000000001
 43
0.0000000001
 40
0.0
 40
0.0
 40
0.0
 40
0.3807113172039079
 40
0.3807113172039079
 40
0.3807113172039079
 10
186.0553521917436
 20
282.5834301852941
 30
0.0
 41
1.0
 10
185.4747956081429
 20
280.6303446163703
 30
0.0
 41
1.037954849302045
 10
185.4747956081429
 20
278.9389228979175
 30
0.0
 41
1.0
  0
SPLINE
  5
769
330
77
100
AcDbEntity
  8
Spigoli visibili(ISO)
100
AcDbSpline
210
0.0
220
0.0
230
1.0
 70
    12
 71
     2
 72
     6
 73
     3
 74
     0
 42
0.0000000001
 43
0.0000000001
 40
0.3807113172039082
 40
0.3807113172039082
 40
0.3807113172039082
 40
0.7614226344078164
 40
0.7614226344078164
 40
0.7614226344078164
 10
185.4747956081429
 20
283.630651588237
 30
0.0
 41
1.0
 10
185.4747956081429
 20
283.1446344437244
 30
0.0
 41
1.037954849302037
 10
186.0553521917436
 20
282.5834301852941
 30
0.0
 41
1.0
  0
LINE
  5
76A
330
77
100
AcDbEntity
  8
Spigoli visibili(ISO)
100
AcDbLine
 10
185.4747956081429
 20
283.630651588237
 30
0.0
 11
185.4747956081429
 21
278.9389228979175
 31
0.0
  0
SPLINE
  5
76B
330
77
100
AcDbEntity
  8
Spigoli visibili(ISO)
100
AcDbSpline
210
0.0
220
0.0
230
1.0
 70
    12
 71
     2
 72
     6
 73
     3
 74
     0
 42
0.0000000001
 43
0.0000000001
 40
0.3807113172039082
 40
0.3807113172039082
 40
0.3807113172039082
 40
0.7614226344078164
 40
0.7614226344078164
 40
0.7614226344078164
 10
185.4747956081429
 20
272.6971297261075
 30
0.0
 41
1.0
 10
185.4747956081429
 20
271.4917251521674
 30
0.0
 41
1.037954849302037
 10
186.0553521917436
 20
270.099843841674
 30
0.0
 41
1.0
  0
LINE
  5
76C
330
77
100
AcDbEntity
  8
Spigoli visibili(ISO)
100
AcDbLine
 10
185.4747956081429
 20
272.6971297261075
 30
0.0
 11
185.4747956081429
 21
270.888858416427
 31
0.0
  0
SPLINE
  5
76D
330
77
100
AcDbEntity
  8
Spigoli visibili(ISO)
100
AcDbSpline
210
0.0
220
0.0
230
1.0
 70
    12
 71
     2
 72
     6
 73
     3
 74
     0
 42
0.0000000001
 43
0.0000000001
 40
0.0
 40
0.0
 40
0.0
 40
0.1819858569347776
 40
0.1819858569347776
 40
0.1819858569347776
 10
186.0553521917436
 20
270.099843841674
 30
0.0
 41
1.0
 10
185.7724371178829
 20
270.3733281991159
 30
0.0
 41
1.018143000911538
 10
185.6300382691512
 20
270.6199702400583
 30
0.0
 41
1.018940735638167
  0
SPLINE
  5
76E
330
77
100
AcDbEntity
  8
Spigoli visibili(ISO)
100
AcDbSpline
210
0.0
220
0.0
230
1.0
 70
    12
 71
     2
 72
     6
 73
     3
 74
     0
 42
0.0000000001
 43
0.0000000001
 40
0.3807113172039079
 40
0.3807113172039079
 40
0.3807113172039079
 40
0.7614226344078161
 40
0.7614226344078161
 40
0.7614226344078161
 10
185.4747956081429
 20
278.9389228979175
 30
0.0
 41
1.0
 10
185.4747956081429
 20
277.2475011794648
 30
0.0
 41
1.037954849302044
 10
186.0553521917436
 20
275.2944156105411
 30
0.0
 41
1.0
  0
LINE
  5
76F
330
77
100
AcDbEntity
  8
Spigoli visibili(ISO)
100
AcDbLine
 10
185.4747956081429
 20
278.9389228979175
 30
0.0
 11
185.4747956081429
 21
272.6971297261075
 31
0.0
  0
SPLINE
  5
770
330
77
100
AcDbEntity
  8
Spigoli visibili(ISO)
100
AcDbSpline
210
0.0
220
0.0
230
1.0
 70
    12
 71
     2
 72
     6
 73
     3
 74
     0
 42
0.0000000001
 43
0.0000000001
 40
0.0
 40
0.0
 40
0.0
 40
0.3807113172039082
 40
0.3807113172039082
 40
0.3807113172039082
 10
186.0553521917436
 20
275.2944156105411
 30
0.0
 41
1.0
 10
185.4747956081429
 20
273.9025343000476
 30
0.0
 41
1.037954849302036
 10
185.4747956081429
 20
272.6971297261075
 30
0.0
 41
1.0
  0
LINE
  5
771
330
77
100
AcDbEntity
  8
Spigoli visibili(ISO)
100
AcDbLine
 10
185.4747956081429
 20
283.888858416427
 30
0.0
 11
185.6300382691512
 21
284.1577465927956
 31
0.0
  0
LINE
  5
772
330
77
100
AcDbEntity
  8
Spigoli visibili(ISO)
100
AcDbLine
 10
185.4747956081429
 20
270.888858416427
 30
0.0
 11
185.6300382691512
 21
270.6199702400583
 31
0.0
  0
LINE
  5
773
330
77
100
AcDbEntity
  8
Spigoli visibili(ISO)
100
AcDbLine
 10
186.0553521917436
 20
270.099843841674
 30
0.0
 11
190.7747956081428
 21
270.099843841674
 31
0.0
  0
LINE
  5
774
330
77
100
AcDbEntity
  8
Spigoli visibili(ISO)
100
AcDbLine
 10
190.7747956081428
 20
270.099843841674
 30
0.0
 11
190.7747956081428
 21
275.2944156105411
 31
0.0
  0
LINE
  5
775
330
77
100
AcDbEntity
  8
Spigoli visibili(ISO)
100
AcDbLine
 10
186.0553521917436
 20
275.2944156105411
 30
0.0
 11
190.7747956081428
 21
275.2944156105411
 31
0.0
  0
LINE
  5
776
330
77
100
AcDbEntity
  8
Spigoli visibili(ISO)
100
AcDbLine
 10
190.7747956081428
 20
275.2944156105411
 30
0.0
 11
190.7747956081428
 21
282.5834301852941
 31
0.0
  0
LINE
  5
777
330
77
100
AcDbEntity
  8
Spigoli visibili(ISO)
100
AcDbLine
 10
186.0553521917436
 20
282.5834301852941
 30
0.0
 11
190.7747956081428
 21
282.5834301852941
 31
0.0
  0
LINE
  5
778
330
77
100
AcDbEntity
  8
Spigoli visibili(ISO)
100
AcDbLine
 10
190.7747956081428
 20
282.5834301852941
 30
0.0
 11
190.7747956081428
 21
284.6778729911799
 31
0.0
  0
LINE
  5
779
330
77
100
AcDbEntity
  8
Spigoli visibili(ISO)
100
AcDbLine
 10
186.0553521917436
 20
284.6778729911799
 30
0.0
 11
190.7747956081428
 21
284.6778729911799
 31
0.0
  0
LINE
  5
77A
330
77
100
AcDbEntity
  8
Spigoli visibili(ISO)
100
AcDbLine
 10
241.3747956081429
 20
280.888858416427
 30
0.0
 11
241.3747956081429
 21
273.888858416427
 31
0.0
  0
LINE
  5
77B
330
77
100
AcDbEntity
  8
Spigoli visibili(ISO)
100
AcDbLine
 10
240.8747956081429
 20
273.388858416427
 30
0.0
 11
240.8747956081429
 21
281.388858416427
 31
0.0
  0
LINE
  5
77C
330
77
100
AcDbEntity
  8
Spigoli visibili(ISO)
100
AcDbLine
 10
241.3747956081429
 20
273.888858416427
 30
0.0
 11
240.8747956081429
 21
273.388858416427
 31
0.0
  0
LINE
  5
77D
330
77
100
AcDbEntity
  8
Spigoli visibili(ISO)
100
AcDbLine
 10
241.3747956081429
 20
280.888858416427
 30
0.0
 11
240.8747956081429
 21
281.388858416427
 31
0.0
  0
LINE
  5
77E
330
77
100
AcDbEntity
  8
Spigoli visibili(ISO)
100
AcDbLine
 10
197.9747956081428
 20
281.388858416427
 30
0.0
 11
240.8747956081429
 21
281.388858416427
 31
0.0
  0
LINE
  5
77F
330
77
100
AcDbEntity
  8
Spigoli visibili(ISO)
100
AcDbLine
 10
197.9747956081428
 20
273.388858416427
 30
0.0
 11
240.8747956081429
 21
273.388858416427
 31
0.0
  0
LINE
  5
780
330
77
100
AcDbEntity
  8
Spigoli visibili(ISO)
100
AcDbLine
 10
190.7747956081428
 20
283.203858416427
 30
0.0
 11
191.3747956081429
 21
283.203858416427
 31
0.0
  0
LINE
  5
781
330
77
100
AcDbEntity
  8
Spigoli visibili(ISO)
100
AcDbLine
 10
190.7747956081428
 20
271.573858416427
 30
0.0
 11
191.3747956081429
 21
271.573858416427
 31
0.0
  0
SPLINE
  5
782
330
77
100
AcDbEntity
  8
Spigoli visibili(ISO)
100
AcDbSpline
210
0.0
220
0.0
230
1.0
 70
    12
 71
     2
 72
     6
 73
     3
 74
     0
 42
0.0000000001
 43
0.0000000001
 40
0.5611777619562249
 40
0.5611777619562249
 40
0.5611777619562249
 40
0.7614226344078164
 40
0.7614226344078164
 40
0.7614226344078164
 10
185.602823081173
 20
334.6704203592394
 30
0.0
 41
1.018926205870996
 10
185.7446072431877
 20
334.395702743821
 30
0.0
 41
1.019963325527658
 10
186.0553521917436
 20
334.0889511192057
 30
0.0
 41
1.0
  0
SPLINE
  5
783
330
77
100
AcDbEntity
  8
Spigoli visibili(ISO)
100
AcDbSpline
210
0.0
220
0.0
230
1.0
 70
    12
 71
     2
 72
     6
 73
     3
 74
     0
 42
0.0000000001
 43
0.0000000001
 40
0.0
 40
0.0
 40
0.0
 40
0.0246505348652582
 40
0.0246505348652582
 40
0.0246505348652582
 10
186.0553521917436
 20
348.6887657135964
 30
0.0
 41
1.0
 10
186.016430868529
 20
348.5960536118557
 30
0.0
 41
1.002457524359656
 10
185.9802820025798
 20
348.5049476443494
 30
0.0
 41
1.004596806065773
  0
SPLINE
  5
784
330
77
100
AcDbEntity
  8
Spigoli visibili(ISO)
100
AcDbSpline
210
0.0
220
0.0
230
1.0
 70
    12
 71
     2
 72
     6
 73
     3
 74
     0
 42
0.0000000001
 43
0.0000000001
 40
0.5839167421082429
 40
0.5839167421082429
 40
0.5839167421082429
 40
0.7614226344078164
 40
0.7614226344078164
 40
0.7614226344078164
 10
185.6371245180018
 20
348.170020335814
 30
0.0
 41
1.01889094853978
 10
185.7792805633135
 20
348.4162418288971
 30
0.0
 41
1.01769637278433
 10
186.0553521917436
 20
348.6887657135964
 30
0.0
 41
1.0
  0
LINE
  5
785
330
77
100
AcDbEntity
  8
Spigoli visibili(ISO)
100
AcDbLine
 10
185.5728794107138
 20
334.7189722869485
 30
0.0
 11
185.6371245180018
 21
334.6076964969881
 31
0.0
  0
LINE
  5
786
330
77
100
AcDbEntity
  8
Spigoli visibili(ISO)
100
AcDbLine
 10
185.5728794107136
 20
348.0587445458532
 30
0.0
 11
185.6371245180018
 21
348.170020335814
 31
0.0
  0
LINE
  5
787
330
77
100
AcDbEntity
  8
Spigoli visibili(ISO)
100
AcDbLine
 10
186.0553521917436
 20
334.0889511192057
 30
0.0
 11
190.7747956081428
 21
334.0889511192057
 31
0.0
  0
LINE
  5
788
330
77
100
AcDbEntity
  8
Spigoli visibili(ISO)
100
AcDbLine
 10
190.7747956081428
 20
334.0889511192057
 30
0.0
 11
190.7747956081428
 21
334.2128202434491
 31
0.0
  0
LINE
  5
789
330
77
100
AcDbEntity
  8
Spigoli visibili(ISO)
100
AcDbLine
 10
190.7747956081428
 20
348.5648965893528
 30
0.0
 11
190.7747956081428
 21
348.6887657135964
 31
0.0
  0
LINE
  5
78A
330
77
100
AcDbEntity
  8
Spigoli visibili(ISO)
100
AcDbLine
 10
186.0553521917436
 20
348.6887657135964
 30
0.0
 11
190.7747956081428
 21
348.6887657135964
 31
0.0
  0
LINE
  5
78B
330
77
100
AcDbEntity
  8
Spigoli visibili(ISO)
100
AcDbLine
 10
197.9747956081428
 20
285.388858416427
 30
0.0
 11
197.9747956081428
 21
269.388858416427
 31
0.0
  0
LINE
  5
78C
330
77
100
AcDbEntity
  8
Spigoli visibili(ISO)
100
AcDbLine
 10
197.9747956081428
 20
269.388858416427
 30
0.0
 11
196.3747956081428
 21
269.388858416427
 31
0.0
  0
LINE
  5
78D
330
77
100
AcDbEntity
  8
Spigoli visibili(ISO)
100
AcDbLine
 10
197.9747956081428
 20
285.388858416427
 30
0.0
 11
196.3747956081428
 21
285.388858416427
 31
0.0
  0
LINE
  5
78E
330
77
100
AcDbEntity
  8
Spigoli visibili(ISO)
100
AcDbLine
 10
197.9747956081429
 20
349.388858416427
 30
0.0
 11
197.9747956081429
 21
333.388858416427
 31
0.0
  0
LINE
  5
78F
330
77
100
AcDbEntity
  8
Spigoli visibili(ISO)
100
AcDbLine
 10
197.9747956081429
 20
333.388858416427
 30
0.0
 11
196.3747956081429
 21
333.388858416427
 31
0.0
  0
LINE
  5
790
330
77
100
AcDbEntity
  8
Spigoli visibili(ISO)
100
AcDbLine
 10
197.9747956081429
 20
349.388858416427
 30
0.0
 11
196.3747956081429
 21
349.388858416427
 31
0.0
  0
LINE
  5
791
330
77
100
AcDbEntity
  8
Spigoli visibili(ISO)
100
AcDbLine
 10
131.3747956081428
 20
340.8888584163913
 30
0.0
 11
53.37479560814287
 21
340.8888584163913
 31
0.0
  0
ARC
  5
792
330
77
100
AcDbEntity
  8
Spigoli visibili(ISO)
100
AcDbCircle
 10
53.37479560814287
 20
346.3888584163913
 30
0.0
 40
5.499999999999993
100
AcDbArc
 50
90.0
 51
270.0
  0
LINE
  5
793
330
77
100
AcDbEntity
  8
Spigoli visibili(ISO)
100
AcDbLine
 10
53.37479560814287
 20
351.8888584163914
 30
0.0
 11
131.3747956081428
 21
351.8888584163913
 31
0.0
  0
ARC
  5
794
330
77
100
AcDbEntity
  8
Spigoli visibili(ISO)
100
AcDbCircle
 10
131.3747956081428
 20
346.3888584163913
 30
0.0
 40
5.499999999999998
100
AcDbArc
 50
269.9999999999998
 51
89.99999999999976
  0
ARC
  5
795
330
77
100
AcDbEntity
  8
Spigoli visibili(ISO)
100
AcDbCircle
 10
131.3747956081428
 20
309.3888584163914
 30
0.0
 40
4.499999999999955
100
AcDbArc
 50
270.0
 51
90.0
  0
LINE
  5
796
330
77
100
AcDbEntity
  8
Spigoli visibili(ISO)
100
AcDbLine
 10
131.3747956081428
 20
304.8888584163913
 30
0.0
 11
98.45373077581299
 21
304.8888584163913
 31
0.0
  0
LINE
  5
797
330
77
100
AcDbEntity
  8
Spigoli visibili(ISO)
100
AcDbLine
 10
88.59051089243166
 20
304.8888584163913
 30
0.0
 11
58.49606277301164
 21
304.8888584163913
 31
0.0
  0
LINE
  5
798
330
77
100
AcDbEntity
  8
Spigoli visibili(ISO)
100
AcDbLine
 10
58.13829112729151
 20
313.8888584163913
 30
0.0
 11
88.29586044047239
 21
313.8888584163913
 31
0.0
  0
LINE
  5
799
330
77
100
AcDbEntity
  8
Spigoli visibili(ISO)
100
AcDbLine
 10
98.15908032385426
 20
313.8888584163913
 30
0.0
 11
131.3747956081428
 21
313.8888584163913
 31
0.0
  0
ARC
  5
79A
330
77
100
AcDbEntity
  8
Spigoli visibili(ISO)
100
AcDbCircle
 10
53.37479560814288
 20
272.3888584163913
 30
0.0
 40
5.499999999999993
100
AcDbArc
 50
89.99999999999991
 51
269.9999999999999
  0
LINE
  5
79B
330
77
100
AcDbEntity
  8
Spigoli visibili(ISO)
100
AcDbLine
 10
53.37479560814287
 20
277.8888584163913
 30
0.0
 11
131.3747956081428
 21
277.8888584163914
 31
0.0
  0
ARC
  5
79C
330
77
100
AcDbEntity
  8
Spigoli visibili(ISO)
100
AcDbCircle
 10
131.3747956081428
 20
272.3888584163914
 30
0.0
 40
5.499999999999998
100
AcDbArc
 50
270.0
 51
90.0
  0
LINE
  5
79D
330
77
100
AcDbEntity
  8
Spigoli visibili(ISO)
100
AcDbLine
 10
131.3747956081428
 20
266.8888584163914
 30
0.0
 11
53.37479560814287
 21
266.8888584163913
 31
0.0
  0
LINE
  5
79E
330
77
100
AcDbEntity
  8
Spigoli visibili(ISO)
100
AcDbLine
 10
67.51693123187383
 20
254.3888584164017
 30
0.0
 11
60.44586342000837
 21
254.3888584164009
 31
0.0
  0
LINE
  5
79F
330
77
100
AcDbEntity
  8
Spigoli visibili(ISO)
100
AcDbLine
 10
60.44586342000837
 20
259.3888584164009
 30
0.0
 11
67.51693123187383
 21
259.3888584164017
 31
0.0
  0
LINE
  5
7A0
330
77
100
AcDbEntity
  8
Spigoli visibili(ISO)
100
AcDbLine
 10
155.8745383440791
 20
259.3888584164248
 30
0.0
 11
158.8034705322136
 21
259.3888584164269
 31
0.0
  0
LINE
  5
7A1
330
77
100
AcDbEntity
  8
Spigoli visibili(ISO)
100
AcDbLine
 10
155.8745383440791
 20
259.3888584164247
 30
0.0
 11
155.8745383440791
 21
254.3888584164248
 31
0.0
  0
LINE
  5
7A2
330
77
100
AcDbEntity
  8
Spigoli visibili(ISO)
100
AcDbLine
 10
158.8034705322137
 20
254.3888584164269
 30
0.0
 11
155.8745383440791
 21
254.3888584164248
 31
0.0
  0
LINE
  5
7A3
330
77
100
AcDbEntity
  8
Spigoli visibili(ISO)
100
AcDbLine
 10
67.51693123187383
 20
359.3888584164017
 30
0.0
 11
60.44586342000837
 21
359.3888584164009
 31
0.0
  0
LINE
  5
7A4
330
77
100
AcDbEntity
  8
Spigoli visibili(ISO)
100
AcDbLine
 10
60.44586342000837
 20
364.3888584164009
 30
0.0
 11
67.51693123187383
 21
364.3888584164017
 31
0.0
  0
LINE
  5
7A5
330
77
100
AcDbEntity
  8
Spigoli visibili(ISO)
100
AcDbLine
 10
155.874538344079
 20
364.3888584164248
 30
0.0
 11
158.8034705322135
 21
364.3888584164268
 31
0.0
  0
LINE
  5
7A6
330
77
100
AcDbEntity
  8
Spigoli visibili(ISO)
100
AcDbLine
 10
155.874538344079
 20
364.3888584164248
 30
0.0
 11
155.874538344079
 21
359.3888584164248
 31
0.0
  0
LINE
  5
7A7
330
77
100
AcDbEntity
  8
Spigoli visibili(ISO)
100
AcDbLine
 10
158.8034705322135
 20
359.3888584164269
 30
0.0
 11
155.874538344079
 21
359.3888584164247
 31
0.0
  0
LINE
  5
7A8
330
77
100
AcDbEntity
  8
Spigoli visibili(ISO)
100
AcDbLine
 10
155.8745383440791
 20
259.3888584164017
 30
0.0
 11
67.51693123187383
 21
259.3888584164017
 31
0.0
  0
LINE
  5
7A9
330
77
100
AcDbEntity
  8
Spigoli visibili(ISO)
100
AcDbLine
 10
67.51693123187383
 20
254.3888584164017
 30
0.0
 11
155.8745383440791
 21
254.3888584164017
 31
0.0
  0
LINE
  5
7AA
330
77
100
AcDbEntity
  8
Spigoli visibili(ISO)
100
AcDbLine
 10
31.37479560814288
 20
259.3888584163922
 30
0.0
 11
60.44586342000835
 21
259.3888584164009
 31
0.0
  0
LINE
  5
7AB
330
77
100
AcDbEntity
  8
Spigoli visibili(ISO)
100
AcDbLine
 10
31.37479560814288
 20
254.3888584163922
 30
0.0
 11
31.37479560814288
 21
259.3888584163922
 31
0.0
  0
LINE
  5
7AC
330
77
100
AcDbEntity
  8
Spigoli visibili(ISO)
100
AcDbLine
 10
60.44586342000835
 20
254.3888584164009
 30
0.0
 11
31.37479560814288
 21
254.3888584163922
 31
0.0
  0
LINE
  5
7AD
330
77
100
AcDbEntity
  8
Spigoli visibili(ISO)
100
AcDbLine
 10
188.8747956081429
 20
254.3888584164357
 30
0.0
 11
158.8034705322137
 21
254.3888584164268
 31
0.0
  0
LINE
  5
7AE
330
77
100
AcDbEntity
  8
Spigoli visibili(ISO)
100
AcDbLine
 10
188.8747956081429
 20
259.3888584164357
 30
0.0
 11
188.8747956081429
 21
254.3888584164357
 31
0.0
  0
LINE
  5
7AF
330
77
100
AcDbEntity
  8
Spigoli visibili(ISO)
100
AcDbLine
 10
158.8034705322136
 20
259.3888584164268
 30
0.0
 11
188.8747956081429
 21
259.3888584164357
 31
0.0
  0
LINE
  5
7B0
330
77
100
AcDbEntity
  8
Spigoli visibili(ISO)
100
AcDbLine
 10
67.51693123187383
 20
364.3888584164017
 30
0.0
 11
155.874538344079
 21
364.3888584164017
 31
0.0
  0
LINE
  5
7B1
330
77
100
AcDbEntity
  8
Spigoli visibili(ISO)
100
AcDbLine
 10
31.37479560814288
 20
364.3888584163922
 30
0.0
 11
60.44586342000835
 21
364.3888584164009
 31
0.0
  0
LINE
  5
7B2
330
77
100
AcDbEntity
  8
Spigoli visibili(ISO)
100
AcDbLine
 10
155.874538344079
 20
359.3888584164017
 30
0.0
 11
67.51693123187383
 21
359.3888584164017
 31
0.0
  0
LINE
  5
7B3
330
77
100
AcDbEntity
  8
Spigoli visibili(ISO)
100
AcDbLine
 10
191.3747956081429
 20
356.888858416392
 30
0.0
 11
188.8747956081429
 21
356.8888584163913
 31
0.0
  0
LINE
  5
7B4
330
77
100
AcDbEntity
  8
Spigoli visibili(ISO)
100
AcDbLine
 10
31.37479560814288
 20
359.3888584163923
 30
0.0
 11
31.37479560814288
 21
364.3888584163922
 31
0.0
  0
LINE
  5
7B5
330
77
100
AcDbEntity
  8
Spigoli visibili(ISO)
100
AcDbLine
 10
60.44586342000835
 20
359.3888584164009
 30
0.0
 11
31.37479560814288
 21
359.3888584163923
 31
0.0
  0
LINE
  5
7B6
330
77
100
AcDbEntity
  8
Spigoli visibili(ISO)
100
AcDbLine
 10
31.37479560814288
 20
356.8888584163913
 30
0.0
 11
31.37479560814288
 21
359.3888584163921
 31
0.0
  0
LINE
  5
7B7
330
77
100
AcDbEntity
  8
Spigoli visibili(ISO)
100
AcDbLine
 10
186.3747956081429
 20
356.8888584163912
 30
0.0
 11
186.3747956081429
 21
359.388858416392
 31
0.0
  0
LINE
  5
7B8
330
77
100
AcDbEntity
  8
Spigoli visibili(ISO)
100
AcDbLine
 10
188.8747956081429
 20
356.8888584163913
 30
0.0
 11
186.3747956081429
 21
356.8888584163913
 31
0.0
  0
LINE
  5
7B9
330
77
100
AcDbEntity
  8
Spigoli visibili(ISO)
100
AcDbLine
 10
188.8747956081429
 20
359.3888584164358
 30
0.0
 11
158.8034705322135
 21
359.388858416427
 31
0.0
  0
LINE
  5
7BA
330
77
100
AcDbEntity
  8
Spigoli visibili(ISO)
100
AcDbLine
 10
188.8747956081429
 20
364.3888584164358
 30
0.0
 11
188.8747956081429
 21
359.3888584164358
 31
0.0
  0
LINE
  5
7BB
330
77
100
AcDbEntity
  8
Spigoli visibili(ISO)
100
AcDbLine
 10
158.8034705322135
 20
364.3888584164269
 30
0.0
 11
188.8747956081429
 21
364.3888584164358
 31
0.0
  0
ARC
  5
7BC
330
77
100
AcDbEntity
  8
Spigoli visibili(ISO)
100
AcDbCircle
 10
188.8747956081429
 20
356.8888584164358
 30
0.0
 40
2.499999999999991
100
AcDbArc
 50
0.0
 51
90.00000000000079
  0
ARC
  5
7BD
330
77
100
AcDbEntity
  8
Spigoli visibili(ISO)
100
AcDbCircle
 10
188.8747956081429
 20
356.8888584164359
 30
0.0
 40
7.499999999999982
100
AcDbArc
 50
0.0
 51
90.0
  0
LINE
  5
7BE
330
77
100
AcDbEntity
  8
Spigoli visibili(ISO)
100
AcDbLine
 10
191.3747956081429
 20
356.8888584164358
 30
0.0
 11
191.3747956081429
 21
261.8888584164357
 31
0.0
  0
LINE
  5
7BF
330
77
100
AcDbEntity
  8
Spigoli visibili(ISO)
100
AcDbLine
 10
196.3747956081429
 20
261.8888584164357
 30
0.0
 11
196.3747956081429
 21
356.8888584164358
 31
0.0
  0
ARC
  5
7C0
330
77
100
AcDbEntity
  8
Spigoli visibili(ISO)
100
AcDbCircle
 10
188.8747956081429
 20
261.8888584164357
 30
0.0
 40
2.499999999999991
100
AcDbArc
 50
270.0
 51
0.0
  0
ARC
  5
7C1
330
77
100
AcDbEntity
  8
Spigoli visibili(ISO)
100
AcDbCircle
 10
188.8747956081429
 20
261.8888584164356
 30
0.0
 40
7.499999999999973
100
AcDbArc
 50
270.0
 51
0.0
  0
LINE
  5
7C2
330
77
100
AcDbEntity
  8
Spigoli visibili(ISO)
100
AcDbLine
 10
188.8747956081429
 20
261.8888584163914
 30
0.0
 11
191.3747956081429
 21
261.8888584163922
 31
0.0
  0
LINE
  5
7C3
330
77
100
AcDbEntity
  8
Spigoli visibili(ISO)
100
AcDbLine
 10
186.3747956081429
 20
261.8888584163914
 30
0.0
 11
188.8747956081429
 21
261.8888584163914
 31
0.0
  0
LINE
  5
7C4
330
77
100
AcDbEntity
  8
Spigoli visibili(ISO)
100
AcDbLine
 10
186.3747956081429
 20
261.8888584163914
 30
0.0
 11
186.3747956081429
 21
259.388858416392
 31
0.0
  0
LINE
  5
7C5
330
77
100
AcDbEntity
  8
Spigoli visibili(ISO)
100
AcDbLine
 10
31.37479560814288
 20
261.8888584163914
 30
0.0
 11
31.37479560814288
 21
259.388858416392
 31
0.0
  0
LINE
  5
7C6
330
77
100
AcDbEntity
  8
Spigoli visibili(ISO)
100
AcDbLine
 10
31.37479560814288
 20
261.8888584163914
 30
0.0
 11
31.37479560814288
 21
356.8888584163913
 31
0.0
  0
ENDSEC
  0
SECTION
  2
OBJECTS
  0
DICTIONARY
  5
C
330
0
100
AcDbDictionary
281
     1
  3
ACAD_COLOR
350
6E
  3
ACAD_GROUP
350
D
  3
ACAD_LAYOUT
350
6D
  3
ACAD_MATERIAL
350
10
  3
ACAD_MLEADERSTYLE
350
71
  3
ACAD_MLINESTYLE
350
6A
  3
ACAD_PLOTSETTINGS
350
6C
  3
ACAD_PLOTSTYLENAME
350
E
  3
ACAD_SCALELIST
350
3D
  3
ACAD_TABLESTYLE
350
6F
  3
ACAD_VISUALSTYLE
350
29
  3
ACDB_RECOMPOSE_DATA
350
9A1
  3
AcDbVariableDictionary
350
8B1
  3
AcmDictionary
350
923
  3
AMG
350
8CC
  3
AMGSNAPSETTINGS
350
95A
  3
DWGPROPS
350
9A2
  0
DICTIONARY
  5
870
330
8
100
AcDbDictionary
280
     1
281
     1
  0
DICTIONARY
  5
7C9
330
27F
100
AcDbDictionary
280
     1
281
     1
  3
ACAD_MLATT
360
964
  3
ACAD_XREC_ROUNDTRIP
360
963
  0
DICTIONARY
  5
7CC
330
282
100
AcDbDictionary
280
     1
281
     1
  3
ACAD_MLATT
360
966
  3
ACAD_XREC_ROUNDTRIP
360
965
  0
DICTIONARY
  5
7CF
330
284
100
AcDbDictionary
280
     1
281
     1
  3
ACAD_MLATT
360
968
  3
ACAD_XREC_ROUNDTRIP
360
967
  0
DICTIONARY
  5
7D4
330
286
100
AcDbDictionary
280
     1
281
     1
  3
ACAD_MLATT
360
96C
  3
ACAD_XREC_ROUNDTRIP
360
96B
  0
DICTIONARY
  5
7D7
330
287
100
AcDbDictionary
280
     1
281
     1
  3
ACAD_MLATT
360
96E
  3
ACAD_XREC_ROUNDTRIP
360
96D
  0
DICTIONARY
  5
7DA
330
288
100
AcDbDictionary
280
     1
281
     1
  3
ACAD_MLATT
360
970
  3
ACAD_XREC_ROUNDTRIP
360
96F
  0
DICTIONARY
  5
7DD
330
289
100
AcDbDictionary
280
     1
281
     1
  3
ACAD_MLATT
360
972
  3
ACAD_XREC_ROUNDTRIP
360
971
  0
DICTIONARY
  5
96A
330
969
100
AcDbDictionary
280
     1
281
     1
  0
DICTIONARY
  5
9D3
330
5A1
100
AcDbDictionary
280
     1
281
     1
  3
ACAD_MTEXT_RT
360
9D4
  0
DICTIONARY
  5
7E4
330
5AD
100
AcDbDictionary
280
     1
281
     1
  3
ACAD_MLATT
360
974
  3
ACAD_XREC_ROUNDTRIP
360
973
  0
DICTIONARY
  5
7E7
330
5AE
100
AcDbDictionary
280
     1
281
     1
  3
ACAD_MLATT
360
976
  3
ACAD_XREC_ROUNDTRIP
360
975
  0
DICTIONARY
  5
7EA
330
5B0
100
AcDbDictionary
280
     1
281
     1
  3
ACAD_MLATT
360
978
  3
ACAD_XREC_ROUNDTRIP
360
977
  0
DICTIONARY
  5
7ED
330
5B2
100
AcDbDictionary
280
     1
281
     1
  3
ACAD_MLATT
360
97A
  3
ACAD_XREC_ROUNDTRIP
360
979
  0
DICTIONARY
  5
7F0
330
5B3
100
AcDbDictionary
280
     1
281
     1
  3
ACAD_MLATT
360
97C
  3
ACAD_XREC_ROUNDTRIP
360
97B
  0
DICTIONARY
  5
7F3
330
5B4
100
AcDbDictionary
280
     1
281
     1
  3
ACAD_MLATT
360
97E
  3
ACAD_XREC_ROUNDTRIP
360
97D
  0
DICTIONARY
  5
7F6
330
5B5
100
AcDbDictionary
280
     1
281
     1
  3
ACAD_MLATT
360
980
  3
ACAD_XREC_ROUNDTRIP
360
97F
  0
DICTIONARY
  5
7F9
330
5B6
100
AcDbDictionary
280
     1
281
     1
  3
ACAD_MLATT
360
982
  3
ACAD_XREC_ROUNDTRIP
360
981
  0
DICTIONARY
  5
7FC
330
5B7
100
AcDbDictionary
280
     1
281
     1
  3
ACAD_MLATT
360
984
  3
ACAD_XREC_ROUNDTRIP
360
983
  0
DICTIONARY
  5
7FF
330
5B8
100
AcDbDictionary
280
     1
281
     1
  3
ACAD_MLATT
360
986
  3
ACAD_XREC_ROUNDTRIP
360
985
  0
DICTIONARY
  5
802
330
5B9
100
AcDbDictionary
280
     1
281
     1
  3
ACAD_MLATT
360
988
  3
ACAD_XREC_ROUNDTRIP
360
987
  0
DICTIONARY
  5
805
330
5BA
100
AcDbDictionary
280
     1
281
     1
  3
ACAD_MLATT
360
98A
  3
ACAD_XREC_ROUNDTRIP
360
989
  0
DICTIONARY
  5
808
330
5BB
100
AcDbDictionary
280
     1
281
     1
  3
ACAD_MLATT
360
98C
  3
ACAD_XREC_ROUNDTRIP
360
98B
  0
DICTIONARY
  5
80B
330
5BC
100
AcDbDictionary
280
     1
281
     1
  3
ACAD_MLATT
360
98E
  3
ACAD_XREC_ROUNDTRIP
360
98D
  0
DICTIONARY
  5
80E
330
5BD
100
AcDbDictionary
280
     1
281
     1
  3
ACAD_MLATT
360
990
  3
ACAD_XREC_ROUNDTRIP
360
98F
  0
DICTIONARY
  5
811
330
5BE
100
AcDbDictionary
280
     1
281
     1
  3
ACAD_MLATT
360
992
  3
ACAD_XREC_ROUNDTRIP
360
991
  0
DICTIONARY
  5
814
330
5BF
100
AcDbDictionary
280
     1
281
     1
  3
ACAD_MLATT
360
994
  3
ACAD_XREC_ROUNDTRIP
360
993
  0
DICTIONARY
  5
817
330
5C0
100
AcDbDictionary
280
     1
281
     1
  3
ACAD_MLATT
360
996
  3
ACAD_XREC_ROUNDTRIP
360
995
  0
DICTIONARY
  5
81A
330
5C1
100
AcDbDictionary
280
     1
281
     1
  3
ACAD_MLATT
360
998
  3
ACAD_XREC_ROUNDTRIP
360
997
  0
DICTIONARY
  5
81D
330
5C2
100
AcDbDictionary
280
     1
281
     1
  3
ACAD_MLATT
360
99A
  3
ACAD_XREC_ROUNDTRIP
360
999
  0
DICTIONARY
  5
820
330
5C3
100
AcDbDictionary
280
     1
281
     1
  3
ACAD_MLATT
360
99C
  3
ACAD_XREC_ROUNDTRIP
360
99B
  0
DICTIONARY
  5
823
330
5C4
100
AcDbDictionary
280
     1
281
     1
  3
ACAD_MLATT
360
99E
  3
ACAD_XREC_ROUNDTRIP
360
99D
  0
DICTIONARY
  5
826
330
5C5
100
AcDbDictionary
280
     1
281
     1
  3
ACAD_MLATT
360
9A0
  3
ACAD_XREC_ROUNDTRIP
360
99F
  0
DICTIONARY
  5
6E
102
{ACAD_REACTORS
330
C
102
}
330
C
100
AcDbDictionary
281
     1
  0
DICTIONARY
  5
D
102
{ACAD_REACTORS
330
C
102
}
330
C
100
AcDbDictionary
281
     1
  0
DICTIONARY
  5
6D
102
{ACAD_REACTORS
330
C
102
}
330
C
100
AcDbDictionary
281
     1
  3
Layout1
350
76
  3
Layout2
350
7E
  3
Model
350
7A
  0
DICTIONARY
  5
10
102
{ACAD_REACTORS
330
C
102
}
330
C
100
AcDbDictionary
281
     1
  3
ByBlock
350
19
  3
ByLayer
350
11
  3
Global
350
21
  0
DICTIONARY
  5
71
102
{ACAD_REACTORS
330
C
102
}
330
C
100
AcDbDictionary
281
     1
  3
Standard
350
72
  0
DICTIONARY
  5
6A
102
{ACAD_REACTORS
330
C
102
}
330
C
100
AcDbDictionary
281
     1
  3
Standard
350
6B
  0
DICTIONARY
  5
6C
102
{ACAD_REACTORS
330
C
102
}
330
C
100
AcDbDictionary
281
     1
  0
ACDBDICTIONARYWDFLT
  5
E
102
{ACAD_REACTORS
330
C
102
}
330
C
100
AcDbDictionary
281
     1
  3
Normal
350
F
100
AcDbDictionaryWithDefault
340
F
  0
DICTIONARY
  5
3D
102
{ACAD_REACTORS
330
C
102
}
330
C
100
AcDbDictionary
281
     1
  3
A0
350
3E
  3
A1
350
3F
  3
A2
350
40
  3
A3
350
41
  3
A4
350
42
  3
A5
350
43
  3
A6
350
44
  3
A7
350
45
  3
A8
350
46
  3
A9
350
47
  3
B0
350
48
  3
B1
350
49
  3
B2
350
4A
  3
B3
350
4B
  3
B4
350
4C
  3
B5
350
4D
  3
B6
350
4E
  3
B7
350
4F
  3
B8
350
50
  3
B9
350
51
  3
C0
350
52
  3
C1
350
53
  3
C2
350
54
  3
C3
350
55
  3
C4
350
56
  3
C5
350
57
  3
C6
350
58
  3
C7
350
59
  3
C8
350
5A
  3
C9
350
5B
  3
D0
350
5C
  3
D1
350
5D
  3
D2
350
5E
  0
DICTIONARY
  5
6F
102
{ACAD_REACTORS
330
C
102
}
330
C
100
AcDbDictionary
281
     1
  3
Standard
350
70
  0
DICTIONARY
  5
29
102
{ACAD_REACTORS
330
C
102
}
330
C
100
AcDbDictionary
281
     1
  3
2dWireframe
350
2F
  3
3D Hidden
350
31
  3
3dWireframe
350
30
  3
Basic
350
2E
  3
Brighten
350
35
  3
ColorChange
350
39
  3
Conceptual
350
32
  3
Dim
350
34
  3
EdgeColorOff
350
3C
  3
Facepattern
350
38
  3
Flat
350
2A
  3
FlatWithEdges
350
2B
  3
Gouraud
350
2C
  3
GouraudWithEdges
350
2D
  3
JitterOff
350
3A
  3
Linepattern
350
37
  3
OverhangOff
350
3B
  3
Realistic
350
33
  3
Thicken
350
36
  0
XRECORD
  5
9A1
102
{ACAD_REACTORS
330
C
102
}
330
C
100
AcDbXrecord
280
     1
 90
        1
330
70
330
27F
330
282
330
284
330
286
330
287
330
288
330
289
330
5AD
330
5AE
330
5B0
330
5B2
330
5B3
330
5B4
330
5B5
330
5B6
330
5B7
330
5B8
330
5B9
330
5BA
330
5BB
330
5BC
330
5BD
330
5BE
330
5BF
330
5C0
330
5C1
330
5C2
330
5C3
330
5C4
330
5C5
  0
DICTIONARY
  5
8B1
102
{ACAD_REACTORS
330
C
102
}
330
C
100
AcDbDictionary
281
     1
  3
CANNOSCALE
350
8B5
  3
CMLEADERSTYLE
350
8B3
  3
CTABLESTYLE
350
8B2
  3
DIMASSOC
350
8BC
  3
HIDETEXT
350
8BB
  3
INDEXCTL
350
8BA
  3
LAYEREVAL
350
8B7
  3
LAYERNOTIFY
350
8B8
  3
LIGHTINGUNITS
350
8B6
  3
MSLTSCALE
350
8B4
  3
SORTENTS
350
8B9
  3
XCLIPFRAME
350
961
  0
DICTIONARY
  5
923
102
{ACAD_REACTORS
330
C
102
}
330
C
100
AcDbDictionary
281
     1
  3
AcmStdDictionary
350
92F
  0
DICTIONARY
  5
8CC
102
{ACAD_REACTORS
330
C
102
}
330
C
100
AcDbDictionary
281
     1
  0
DICTIONARY
  5
95A
102
{ACAD_REACTORS
330
C
102
}
330
C
100
AcDbDictionary
281
     1
  0
XRECORD
  5
9A2
102
{ACAD_REACTORS
330
C
102
}
330
C
100
AcDbXrecord
280
     1
  1
DWGPROPS COOKIE
  2

  3

  4
FRAMAL
  6

  7

  8
simzur
  9

300
Responsabile=
301
Società=
302
Categoria=
303
Numero parte=CG-15-M
304
Descrizione=
305
Progetto=
306
Progettista=FRAMAL
307
Ingegnere=
308
Autorità=
309
Centro gestione costi=
 40
0.0006310069444444
 41
2455971.647392535
 42
2455971.648105649
  1

 90
       16
300
Fornitore=
300
Stato utente=
300
Stato progetto=In corso
300
Verificato da=
300
Progett. approvata da=
300
Prod. approvata da=
  0
XRECORD
  5
964
102
{ACAD_REACTORS
330
7C9
102
}
330
7C9
100
AcDbXrecord
280
     1
 70
     4
 70
     0
 70
     0
 40
1.0
  2
DESCRIZIONE_1
  1
Embedded Object
 10
-93.49119398589706
 20
5.505471063720221
 30
0.0
 40
2.489199936389923
 41
106.9783856763648
 46
0.0
 71
     1
 72
     5
  1
MODIFICATO QUOTA DA 20 A 25
  7
Stile testo15
 73
     1
 44
1.0
  0
XRECORD
  5
963
102
{ACAD_REACTORS
330
7C9
102
}
330
7C9
100
AcDbXrecord
280
     1
102
ACAD_MATT_HEIGHT
140
2.489199936389923
  0
XRECORD
  5
966
102
{ACAD_REACTORS
330
7CC
102
}
330
7CC
100
AcDbXrecord
280
     1
 70
     4
 70
     0
 70
     0
 40
1.0
  2
DESCRIZIONE_2
  1
Embedded Object
 10
-93.56890635983567
 20
1.937379052550589
 30
0.0
 40
2.489199936389923
 41
106.0389395913541
 46
0.0
 71
     1
 72
     5
  1
MODIFICATO INTERASSE DA 80 A 90
  7
Stile testo15
 73
     1
 44
1.0
  0
XRECORD
  5
965
102
{ACAD_REACTORS
330
7CC
102
}
330
7CC
100
AcDbXrecord
280
     1
102
ACAD_MATT_HEIGHT
140
2.489199936389923
  0
XRECORD
  5
968
102
{ACAD_REACTORS
330
7CF
102
}
330
7CF
100
AcDbXrecord
280
     1
 70
     4
 70
     0
 70
     0
 40
1.0
  2
NR.REV
  1
Embedded Object
 10
17.21416714364988
 20
2.459098066293776
 30
0.0
 40
3.499999940395355
 41
5.795553091395007
 46
0.0
 71
     5
 72
     5
  1
\W0.9000;01
  7
Stile testo116
 73
     1
 44
1.0
  0
XRECORD
  5
967
102
{ACAD_REACTORS
330
7CF
102
}
330
7CF
100
AcDbXrecord
280
     1
102
ACAD_MATT_HEIGHT
140
3.499999940395355
  0
XRECORD
  5
96C
102
{ACAD_REACTORS
330
7D4
102
}
330
7D4
100
AcDbXrecord
280
     1
 70
     4
 70
     0
 70
     1
340
969
 40
1.0
  2
DISEGNATO
  1
Embedded Object
 10
32.66124997243344
 20
4.468844212966427
 30
0.0
 40
2.489199936389923
 41
24.93167301252459
 46
0.0
 71
     5
 72
     5
  1
\W0.9000;FRIGETTO MAURO
  7
Stile testo115
 73
     1
 44
1.0
  0
XRECORD
  5
96B
102
{ACAD_REACTORS
330
7D4
102
}
330
7D4
100
AcDbXrecord
280
     1
102
ACAD_MATT_HEIGHT
140
2.489199936389923
  0
XRECORD
  5
96E
102
{ACAD_REACTORS
330
7D7
102
}
330
7D7
100
AcDbXrecord
280
     1
 70
     4
 70
     0
 70
     0
 40
1.0
  2
DATA
  1
Embedded Object
 10
32.60244885683786
 20
0.4703683121771185
 30
0.0
 40
2.489199936389923
 41
24.99047412812017
 46
0.0
 71
     5
 72
     5
  1
12-12-01
  7
Stile testo15
 73
     1
 44
1.0
  0
XRECORD
  5
96D
102
{ACAD_REACTORS
330
7D7
102
}
330
7D7
100
AcDbXrecord
280
     1
102
ACAD_MATT_HEIGHT
140
2.489199936389923
  0
XRECORD
  5
970
102
{ACAD_REACTORS
330
7DA
102
}
330
7DA
100
AcDbXrecord
280
     1
 70
     4
 70
     0
 70
     0
 40
1.0
  2
DATA
  1
Embedded Object
 10
57.6076232638568
 20
0.4850685912241559
 30
0.0
 40
2.489199936389923
 41
24.96107357032237
 46
0.0
 71
     5
 72
     5
  1
12-12-01
  7
Stile testo15
 73
     1
 44
1.0
  0
XRECORD
  5
96F
102
{ACAD_REACTORS
330
7DA
102
}
330
7DA
100
AcDbXrecord
280
     1
102
ACAD_MATT_HEIGHT
140
2.489199936389923
  0
XRECORD
  5
972
102
{ACAD_REACTORS
330
7DD
102
}
330
7DD
100
AcDbXrecord
280
     1
 70
     4
 70
     0
 70
     0
 40
1.0
  2
DATA
  1
Embedded Object
 10
82.5539965552803
 20
0.4703683121771541
 30
0.0
 40
2.489199936389923
 41
24.93167301252459
 46
0.0
 71
     5
 72
     5
  1
12-12-01
  7
Stile testo15
 73
     1
 44
1.0
  0
XRECORD
  5
971
102
{ACAD_REACTORS
330
7DD
102
}
330
7DD
100
AcDbXrecord
280
     1
102
ACAD_MATT_HEIGHT
140
2.489199936389923
  0
XRECORD
  5
9D4
102
{ACAD_REACTORS
330
9D3
102
}
330
9D3
100
AcDbXrecord
280
     1
 40
567138.0
  1
\fArial|b0|i0;\H2.0066;Via Cassola , 64\P36027 Rosà (VI)\PITALY\PTel.0424/585111\PFax.0424/533417\Pwww.comunello.com
  0
XRECORD
  5
974
102
{ACAD_REACTORS
330
7E4
102
}
330
7E4
100
AcDbXrecord
280
     1
 70
     4
 70
     0
 70
     0
 40
1.0
  2
Denominazione__1
  1
Embedded Object
 10
11.0
 20
66.5
 30
0.0
 40
2.006599903106689
 41
71.00000000000001
 46
0.0
 71
     1
 72
     5
  1
STAFFA PER INCONTRO MINI
  7
Stile testo6
 73
     1
 44
1.0
  0
XRECORD
  5
973
102
{ACAD_REACTORS
330
7E4
102
}
330
7E4
100
AcDbXrecord
280
     1
102
ACAD_MATT_HEIGHT
140
2.006599903106689
  0
XRECORD
  5
976
102
{ACAD_REACTORS
330
7E7
102
}
330
7E7
100
AcDbXrecord
280
     1
 70
     4
 70
     0
 70
     0
 40
1.0
  2
Denominazione_2
  1
Embedded Object
 10
11.0
 20
63.0
 30
0.0
 40
2.006599903106689
 41
71.00000000000001
 46
0.0
 71
     1
 72
     5
  1

  7
Stile testo6
 73
     1
 44
1.0
  0
XRECORD
  5
975
102
{ACAD_REACTORS
330
7E7
102
}
330
7E7
100
AcDbXrecord
280
     1
102
ACAD_MATT_HEIGHT
140
2.006599903106689
  0
XRECORD
  5
978
102
{ACAD_REACTORS
330
7EA
102
}
330
7EA
100
AcDbXrecord
280
     1
 70
     4
 70
     0
 70
     0
 40
1.0
  2
CODICE_DISEGNO
  1
Embedded Object
 10
97.25000000000001
 20
63.50000000000001
 30
0.0
 40
3.50519984960556
 41
28.5
 46
0.0
 71
     5
 72
     5
  1
\W0.7500;CG-15-M
  7
Stile testo135
 73
     1
 44
1.0
  0
XRECORD
  5
977
102
{ACAD_REACTORS
330
7EA
102
}
330
7EA
100
AcDbXrecord
280
     1
102
ACAD_MATT_HEIGHT
140
3.50519984960556
  0
XRECORD
  5
97A
102
{ACAD_REACTORS
330
7ED
102
}
330
7ED
100
AcDbXrecord
280
     1
 70
     4
 70
     0
 70
     0
 40
1.0
  2
Materiale_1
  1
Embedded Object
 10
144.75
 20
65.24632405268551
 30
0.0
 40
2.006599903106689
 41
63.50000000000001
 46
0.0
 71
     5
 72
     5
  1

  7
Stile testo6
 73
     1
 44
1.0
  0
XRECORD
  5
979
102
{ACAD_REACTORS
330
7ED
102
}
330
7ED
100
AcDbXrecord
280
     1
102
ACAD_MATT_HEIGHT
140
2.006599903106689
  0
XRECORD
  5
97C
102
{ACAD_REACTORS
330
7F0
102
}
330
7F0
100
AcDbXrecord
280
     1
 70
     4
 70
     0
 70
     0
 40
1.0
  2
Materiale_2
  1
Embedded Object
 10
144.809961390817
 20
61.5
 30
0.0
 40
2.006599903106689
 41
65.0
 46
0.0
 71
     5
 72
     5
  1

  7
Stile testo6
 73
     1
 44
1.0
  0
XRECORD
  5
97B
102
{ACAD_REACTORS
330
7F0
102
}
330
7F0
100
AcDbXrecord
280
     1
102
ACAD_MATT_HEIGHT
140
2.006599903106689
  0
XRECORD
  5
97E
102
{ACAD_REACTORS
330
7F3
102
}
330
7F3
100
AcDbXrecord
280
     1
 70
     4
 70
     0
 70
     0
 40
1.0
  2
CODICE_MATERIALE
  1
Embedded Object
 10
188.5
 20
63.5
 30
0.0
 40
2.006599903106689
 41
23.00000000000001
 46
0.0
 71
     5
 72
     5
  1

  7
Stile testo6
 73
     1
 44
1.0
  0
XRECORD
  5
97D
102
{ACAD_REACTORS
330
7F3
102
}
330
7F3
100
AcDbXrecord
280
     1
102
ACAD_MATT_HEIGHT
140
2.006599903106689
  0
XRECORD
  5
980
102
{ACAD_REACTORS
330
7F6
102
}
330
7F6
100
AcDbXrecord
280
     1
 70
     4
 70
     0
 70
     0
 40
1.0
  2
PESO_UNITARIO_KG
  1
Embedded Object
 10
97.05039695754834
 20
48.4920608646265
 30
0.0
 40
2.489199936389923
 41
26.99999999999999
 46
0.0
 71
     5
 72
     5
  1

  7
Stile testo15
 73
     1
 44
1.0
  0
XRECORD
  5
97F
102
{ACAD_REACTORS
330
7F6
102
}
330
7F6
100
AcDbXrecord
280
     1
102
ACAD_MATT_HEIGHT
140
2.489199936389923
  0
XRECORD
  5
982
102
{ACAD_REACTORS
330
7F9
102
}
330
7F9
100
AcDbXrecord
280
     1
 70
     4
 70
     0
 70
     0
 40
1.0
  2
TRATTAMENTO_1
  1
Embedded Object
 10
132.6521050609213
 20
53.48089266404504
 30
0.0
 40
2.489199936389923
 41
46.5
 46
0.0
 71
     1
 72
     5
  1

  7
Stile testo15
 73
     1
 44
1.0
  0
XRECORD
  5
981
102
{ACAD_REACTORS
330
7F9
102
}
330
7F9
100
AcDbXrecord
280
     1
102
ACAD_MATT_HEIGHT
140
2.489199936389923
  0
XRECORD
  5
984
102
{ACAD_REACTORS
330
7FC
102
}
330
7FC
100
AcDbXrecord
280
     1
 70
     4
 70
     0
 70
     0
 40
1.0
  2
TRATTAMENTO_2
  1
Embedded Object
 10
113.0632687693352
 20
49.98769965437094
 30
0.0
 40
2.489199936389923
 41
63.0
 46
0.0
 71
     1
 72
     5
  1

  7
Stile testo15
 73
     1
 44
1.0
  0
XRECORD
  5
983
102
{ACAD_REACTORS
330
7FC
102
}
330
7FC
100
AcDbXrecord
280
     1
102
ACAD_MATT_HEIGHT
140
2.489199936389923
  0
XRECORD
  5
986
102
{ACAD_REACTORS
330
7FF
102
}
330
7FF
100
AcDbXrecord
280
     1
 70
     4
 70
     0
 70
     0
 40
1.0
  2
COEFFICIENTE_D'IMPEGO
  1
Embedded Object
 10
188.5523258958931
 20
48.62644459325678
 30
0.0
 40
2.489199936389923
 41
21.00000000000001
 46
0.0
 71
     5
 72
     5
  1

  7
Stile testo15
 73
     1
 44
1.0
  0
XRECORD
  5
985
102
{ACAD_REACTORS
330
7FF
102
}
330
7FF
100
AcDbXrecord
280
     1
102
ACAD_MATT_HEIGHT
140
2.489199936389923
  0
XRECORD
  5
988
102
{ACAD_REACTORS
330
802
102
}
330
802
100
AcDbXrecord
280
     1
 70
     4
 70
     0
 70
     0
 40
1.0
  2
SCALA
  1
Embedded Object
 10
97.25000000000001
 20
41.0
 30
0.0
 40
2.489199936389923
 41
26.5
 46
0.0
 71
     5
 72
     5
  1
1 : 2
  7
Stile testo15
 73
     1
 44
1.0
  0
XRECORD
  5
987
102
{ACAD_REACTORS
330
802
102
}
330
802
100
AcDbXrecord
280
     1
102
ACAD_MATT_HEIGHT
140
2.489199936389923
  0
XRECORD
  5
98A
102
{ACAD_REACTORS
330
805
102
}
330
805
100
AcDbXrecord
280
     1
 70
     4
 70
     0
 70
     0
 40
1.0
  2
FOGLIO
  1
Embedded Object
 10
119.1976741041069
 20
40.40294218049127
 30
0.0
 40
2.489199936389923
 41
13.50000000000001
 46
0.0
 71
     5
 72
     5
  1
A 4
  7
Stile testo15
 73
     1
 44
1.0
  0
XRECORD
  5
989
102
{ACAD_REACTORS
330
805
102
}
330
805
100
AcDbXrecord
280
     1
102
ACAD_MATT_HEIGHT
140
2.489199936389923
  0
XRECORD
  5
98C
102
{ACAD_REACTORS
330
808
102
}
330
808
100
AcDbXrecord
280
     1
 70
     4
 70
     0
 70
     0
 40
1.0
  2
DISEGNATO
  1
Embedded Object
 10
127.5
 20
41.5
 30
0.0
 40
2.489199936389923
 41
31.5
 46
0.0
 71
     1
 72
     5
  1
MALLOGGI F.
  7
Stile testo15
 73
     1
 44
1.0
  0
XRECORD
  5
98B
102
{ACAD_REACTORS
330
808
102
}
330
808
100
AcDbXrecord
280
     1
102
ACAD_MATT_HEIGHT
140
2.489199936389923
  0
XRECORD
  5
98E
102
{ACAD_REACTORS
330
80B
102
}
330
80B
100
AcDbXrecord
280
     1
 70
     4
 70
     0
 70
     0
 40
1.0
  2
DATA
  1
Embedded Object
 10
168.25
 20
40.5
 30
0.0
 40
2.489199936389923
 41
15.5
 46
0.0
 71
     5
 72
     5
  1
12/09/05
  7
Stile testo15
 73
     1
 44
1.0
  0
XRECORD
  5
98D
102
{ACAD_REACTORS
330
80B
102
}
330
80B
100
AcDbXrecord
280
     1
102
ACAD_MATT_HEIGHT
140
2.489199936389923
  0
XRECORD
  5
990
102
{ACAD_REACTORS
330
80E
102
}
330
80E
100
AcDbXrecord
280
     1
 70
     4
 70
     0
 70
     0
 40
1.0
  2
DATA
  1
Embedded Object
 10
168.25
 20
32.75
 30
0.0
 40
2.489199936389923
 41
15.5
 46
0.0
 71
     5
 72
     5
  1

  7
Stile testo15
 73
     1
 44
1.0
  0
XRECORD
  5
98F
102
{ACAD_REACTORS
330
80E
102
}
330
80E
100
AcDbXrecord
280
     1
102
ACAD_MATT_HEIGHT
140
2.489199936389923
  0
XRECORD
  5
992
102
{ACAD_REACTORS
330
811
102
}
330
811
100
AcDbXrecord
280
     1
 70
     4
 70
     0
 70
     0
 40
1.0
  2
DATA
  1
Embedded Object
 10
168.25
 20
24.75
 30
0.0
 40
2.489199936389923
 41
15.5
 46
0.0
 71
     5
 72
     5
  1

  7
Stile testo15
 73
     1
 44
1.0
  0
XRECORD
  5
991
102
{ACAD_REACTORS
330
811
102
}
330
811
100
AcDbXrecord
280
     1
102
ACAD_MATT_HEIGHT
140
2.489199936389923
  0
XRECORD
  5
994
102
{ACAD_REACTORS
330
814
102
}
330
814
100
AcDbXrecord
280
     1
 70
     4
 70
     0
 70
     0
 40
1.0
  2
NUMERO_ARTICOLO
  1
Embedded Object
 10
137.8158294861797
 20
21.53904977834278
 30
0.0
 40
2.489199936389923
 41
63.00000000000003
 46
0.0
 71
     1
 72
     5
  1
CG-15-M
  7
Stile testo15
 73
     1
 44
1.0
  0
XRECORD
  5
993
102
{ACAD_REACTORS
330
814
102
}
330
814
100
AcDbXrecord
280
     1
102
ACAD_MATT_HEIGHT
140
2.489199936389923
  0
XRECORD
  5
996
102
{ACAD_REACTORS
330
817
102
}
330
817
100
AcDbXrecord
280
     1
 70
     4
 70
     0
 70
     0
 40
1.0
  2
NUMERO_ARTICOLO
  1
Embedded Object
 10
127.1848152468796
 20
17.63978885077316
 30
0.0
 40
2.489199936389923
 41
71.00000000000001
 46
0.0
 71
     1
 72
     5
  1

  7
Stile testo15
 73
     1
 44
1.0
  0
XRECORD
  5
995
102
{ACAD_REACTORS
330
817
102
}
330
817
100
AcDbXrecord
280
     1
102
ACAD_MATT_HEIGHT
140
2.489199936389923
  0
XRECORD
  5
998
102
{ACAD_REACTORS
330
81A
102
}
330
81A
100
AcDbXrecord
280
     1
 70
     4
 70
     0
 70
     0
 40
1.0
  2
ATTREZZAT._1
  1
Embedded Object
 10
188.5
 20
40.5
 30
0.0
 40
2.489199936389923
 41
21.00000000000001
 46
0.0
 71
     5
 72
     5
  1

  7
Stile testo15
 73
     1
 44
1.0
  0
XRECORD
  5
997
102
{ACAD_REACTORS
330
81A
102
}
330
81A
100
AcDbXrecord
280
     1
102
ACAD_MATT_HEIGHT
140
2.489199936389923
  0
XRECORD
  5
99A
102
{ACAD_REACTORS
330
81D
102
}
330
81D
100
AcDbXrecord
280
     1
 70
     4
 70
     0
 70
     0
 40
1.0
  2
ATTREZZAT.2
  1
Embedded Object
 10
188.5
 20
32.5
 30
0.0
 40
2.489199936389923
 41
21.00000000000001
 46
0.0
 71
     5
 72
     5
  1

  7
Stile testo15
 73
     1
 44
1.0
  0
XRECORD
  5
999
102
{ACAD_REACTORS
330
81D
102
}
330
81D
100
AcDbXrecord
280
     1
102
ACAD_MATT_HEIGHT
140
2.489199936389923
  0
XRECORD
  5
99C
102
{ACAD_REACTORS
330
820
102
}
330
820
100
AcDbXrecord
280
     1
 70
     4
 70
     0
 70
     0
 40
1.0
  2
ATTREZZAT.3
  1
Embedded Object
 10
188.5
 20
24.5
 30
0.0
 40
2.489199936389923
 41
21.00000000000001
 46
0.0
 71
     5
 72
     5
  1

  7
Stile testo15
 73
     1
 44
1.0
  0
XRECORD
  5
99B
102
{ACAD_REACTORS
330
820
102
}
330
820
100
AcDbXrecord
280
     1
102
ACAD_MATT_HEIGHT
140
2.489199936389923
  0
XRECORD
  5
99E
102
{ACAD_REACTORS
330
823
102
}
330
823
100
AcDbXrecord
280
     1
 70
     4
 70
     0
 70
     0
 40
1.0
  2
SOSTITUISCE_IL
  1
Embedded Object
 10
22.0
 20
41.0
 30
0.0
 40
2.489199936389923
 41
22.0
 46
0.0
 71
     5
 72
     5
  1

  7
Stile testo15
 73
     1
 44
1.0
  0
XRECORD
  5
99D
102
{ACAD_REACTORS
330
823
102
}
330
823
100
AcDbXrecord
280
     1
102
ACAD_MATT_HEIGHT
140
2.489199936389923
  0
XRECORD
  5
9A0
102
{ACAD_REACTORS
330
826
102
}
330
826
100
AcDbXrecord
280
     1
 70
     4
 70
     0
 70
     0
 40
1.0
  2
SOSTITUITO_DAL
  1
Embedded Object
 10
46.5
 20
41.0
 30
0.0
 40
2.489199936389923
 41
22.0
 46
0.0
 71
     5
 72
     5
  1

  7
Stile testo15
 73
     1
 44
1.0
  0
XRECORD
  5
99F
102
{ACAD_REACTORS
330
826
102
}
330
826
100
AcDbXrecord
280
     1
102
ACAD_MATT_HEIGHT
140
2.489199936389923
  0
LAYOUT
  5
76
102
{ACAD_XDICTIONARY
360
9CD
102
}
102
{ACAD_REACTORS
330
6D
102
}
330
6D
100
AcDbPlotSettings
  1

  2

  4

  6

 40
0.0
 41
0.0
 42
0.0
 43
0.0
 44
0.0
 45
0.0
 46
0.0
 47
0.0
 48
0.0
 49
0.0
140
0.0
141
0.0
142
1.0
143
1.0
 70
   688
 72
     0
 73
     0
 74
     5
  7

 75
    16
147
1.0
148
0.0
149
0.0
100
AcDbLayout
  1
Layout1
 70
     1
 71
     1
 10
0.0
 20
0.0
 11
420.0
 21
594.0
 12
0.0
 22
0.0
 32
0.0
 14
0.0
 24
0.0
 34
0.0
 15
420.0
 25
594.0
 35
0.0
146
0.0
 13
0.0
 23
0.0
 33
0.0
 16
1.0
 26
0.0
 36
0.0
 17
0.0
 27
1.0
 37
0.0
 76
     0
330
73
  0
LAYOUT
  5
7E
102
{ACAD_XDICTIONARY
360
9D1
102
}
102
{ACAD_REACTORS
330
6D
102
}
330
6D
100
AcDbPlotSettings
  1

  2

  4

  6

 40
0.0
 41
0.0
 42
0.0
 43
0.0
 44
0.0
 45
0.0
 46
0.0
 47
0.0
 48
0.0
 49
0.0
140
0.0
141
0.0
142
1.0
143
1.0
 70
   688
 72
     0
 73
     0
 74
     5
  7

 75
    16
147
1.0
148
0.0
149
0.0
100
AcDbLayout
  1
Layout2
 70
     1
 71
     2
 10
0.0
 20
0.0
 11
12.0
 21
9.0
 12
0.0
 22
0.0
 32
0.0
 14
0.0
 24
0.0
 34
0.0
 15
0.0
 25
0.0
 35
0.0
146
0.0
 13
0.0
 23
0.0
 33
0.0
 16
1.0
 26
0.0
 36
0.0
 17
0.0
 27
1.0
 37
0.0
 76
     0
330
7B
  0
LAYOUT
  5
7A
102
{ACAD_XDICTIONARY
360
9CF
102
}
102
{ACAD_REACTORS
330
6D
102
}
330
6D
100
AcDbPlotSettings
  1

  2

  4

  6

 40
0.0
 41
0.0
 42
0.0
 43
0.0
 44
0.0
 45
0.0
 46
0.0
 47
0.0
 48
0.0
 49
0.0
140
0.0
141
0.0
142
1.0
143
1.0
 70
  1712
 72
     0
 73
     0
 74
     0
  7

 75
     0
147
1.0
148
0.0
149
0.0
100
AcDbLayout
  1
Model
 70
     1
 71
     0
 10
0.0
 20
0.0
 11
12.0
 21
9.0
 12
0.0
 22
0.0
 32
0.0
 14
0.0
 24
0.0
 34
0.0
 15
0.0
 25
0.0
 35
0.0
146
0.0
 13
0.0
 23
0.0
 33
0.0
 16
1.0
 26
0.0
 36
0.0
 17
0.0
 27
1.0
 37
0.0
 76
     0
330
77
331
62
  0
MATERIAL
  5
19
102
{ACAD_XDICTIONARY
360
1A
102
}
102
{ACAD_REACTORS
330
10
102
}
330
10
100
AcDbMaterial
  1
ByBlock
 72
     0
 43
0.0208333333333333
 43
0.0
 43
0.0
 43
0.0
 43
0.0
 43
0.0208333333333333
 43
0.0
 43
0.0
 43
0.0
 43
0.0
 43
1.0
 43
0.0
 43
0.0
 43
0.0
 43
0.0
 43
1.0
 77
     0
 47
0.0208333333333333
 47
0.0
 47
0.0
 47
0.0
 47
0.0
 47
0.0208333333333333
 47
0.0
 47
0.0
 47
0.0
 47
0.0
 47
1.0
 47
0.0
 47
0.0
 47
0.0
 47
0.0
 47
1.0
171
     0
 49
0.0208333333333333
 49
0.0
 49
0.0
 49
0.0
 49
0.0
 49
0.0208333333333333
 49
0.0
 49
0.0
 49
0.0
 49
0.0
 49
1.0
 49
0.0
 49
0.0
 49
0.0
 49
0.0
 49
1.0
175
     0
142
0.0208333333333333
142
0.0
142
0.0
142
0.0
142
0.0
142
0.0208333333333333
142
0.0
142
0.0
142
0.0
142
0.0
142
1.0
142
0.0
142
0.0
142
0.0
142
0.0
142
1.0
179
     0
144
0.0208333333333333
144
0.0
144
0.0
144
0.0
144
0.0
144
0.0208333333333333
144
0.0
144
0.0
144
0.0
144
0.0
144
1.0
144
0.0
144
0.0
144
0.0
144
0.0
144
1.0
147
0.0208333333333333
147
0.0
147
0.0
147
0.0
147
0.0
147
0.0208333333333333
147
0.0
147
0.0
147
0.0
147
0.0
147
1.0
147
0.0
147
0.0
147
0.0
147
0.0
147
1.0
  0
MATERIAL
  5
11
102
{ACAD_XDICTIONARY
360
12
102
}
102
{ACAD_REACTORS
330
10
102
}
330
10
100
AcDbMaterial
  1
ByLayer
 72
     0
 43
0.0208333333333333
 43
0.0
 43
0.0
 43
0.0
 43
0.0
 43
0.0208333333333333
 43
0.0
 43
0.0
 43
0.0
 43
0.0
 43
1.0
 43
0.0
 43
0.0
 43
0.0
 43
0.0
 43
1.0
 77
     0
 47
0.0208333333333333
 47
0.0
 47
0.0
 47
0.0
 47
0.0
 47
0.0208333333333333
 47
0.0
 47
0.0
 47
0.0
 47
0.0
 47
1.0
 47
0.0
 47
0.0
 47
0.0
 47
0.0
 47
1.0
171
     0
 49
0.0208333333333333
 49
0.0
 49
0.0
 49
0.0
 49
0.0
 49
0.0208333333333333
 49
0.0
 49
0.0
 49
0.0
 49
0.0
 49
1.0
 49
0.0
 49
0.0
 49
0.0
 49
0.0
 49
1.0
175
     0
142
0.0208333333333333
142
0.0
142
0.0
142
0.0
142
0.0
142
0.0208333333333333
142
0.0
142
0.0
142
0.0
142
0.0
142
1.0
142
0.0
142
0.0
142
0.0
142
0.0
142
1.0
179
     0
144
0.0208333333333333
144
0.0
144
0.0
144
0.0
144
0.0
144
0.0208333333333333
144
0.0
144
0.0
144
0.0
144
0.0
144
1.0
144
0.0
144
0.0
144
0.0
144
0.0
144
1.0
147
0.0208333333333333
147
0.0
147
0.0
147
0.0
147
0.0
147
0.0208333333333333
147
0.0
147
0.0
147
0.0
147
0.0
147
1.0
147
0.0
147
0.0
147
0.0
147
0.0
147
1.0
  0
MATERIAL
  5
21
102
{ACAD_XDICTIONARY
360
22
102
}
102
{ACAD_REACTORS
330
10
102
}
330
10
100
AcDbMaterial
  1
Global
 72
     0
 43
0.0208333333333333
 43
0.0
 43
0.0
 43
0.0
 43
0.0
 43
0.0208333333333333
 43
0.0
 43
0.0
 43
0.0
 43
0.0
 43
1.0
 43
0.0
 43
0.0
 43
0.0
 43
0.0
 43
1.0
 77
     0
 47
0.0208333333333333
 47
0.0
 47
0.0
 47
0.0
 47
0.0
 47
0.0208333333333333
 47
0.0
 47
0.0
 47
0.0
 47
0.0
 47
1.0
 47
0.0
 47
0.0
 47
0.0
 47
0.0
 47
1.0
171
     0
 49
0.0208333333333333
 49
0.0
 49
0.0
 49
0.0
 49
0.0
 49
0.0208333333333333
 49
0.0
 49
0.0
 49
0.0
 49
0.0
 49
1.0
 49
0.0
 49
0.0
 49
0.0
 49
0.0
 49
1.0
175
     0
142
0.0208333333333333
142
0.0
142
0.0
142
0.0
142
0.0
142
0.0208333333333333
142
0.0
142
0.0
142
0.0
142
0.0
142
1.0
142
0.0
142
0.0
142
0.0
142
0.0
142
1.0
179
     0
144
0.0208333333333333
144
0.0
144
0.0
144
0.0
144
0.0
144
0.0208333333333333
144
0.0
144
0.0
144
0.0
144
0.0
144
1.0
144
0.0
144
0.0
144
0.0
144
0.0
144
1.0
147
0.0208333333333333
147
0.0
147
0.0
147
0.0
147
0.0
147
0.0208333333333333
147
0.0
147
0.0
147
0.0
147
0.0
147
1.0
147
0.0
147
0.0
147
0.0
147
0.0
147
1.0
  0
MLEADERSTYLE
  5
72
102
{ACAD_REACTORS
330
71
102
}
330
71
100
AcDbMLeaderStyle
170
     2
171
     1
172
     0
 90
        2
 40
0.0
 41
0.0
173
     1
 91
-1056964608
340
66
 92
       -2
290
     1
 42
0.09
291
     1
 43
0.36
  3
Standard
 44
0.18
300

342
60
174
     1
178
     6
175
     1
176
     0
 93
-1056964608
 45
0.18
292
     0
297
     0
 46
0.18
 94
-1056964608
 47
1.0
 49
1.0
140
1.0
293
     1
141
0.0
294
     1
177
     0
142
1.0
295
     0
296
     0
143
0.125
1001
ACAD_MLEADERVER
1070
     2
  0
MLINESTYLE
  5
6B
102
{ACAD_REACTORS
330
6A
102
}
330
6A
100
AcDbMlineStyle
  2
STANDARD
 70
     0
  3

 62
   256
 51
90.0
 52
90.0
 71
     2
 49
0.5
 62
   256
  6
BYLAYER
 49
-0.5
 62
   256
  6
BYLAYER
  0
ACDBPLACEHOLDER
  5
F
102
{ACAD_REACTORS
330
E
102
}
330
E
  0
SCALE
  5
3E
102
{ACAD_REACTORS
330
3D
102
}
330
3D
100
AcDbScale
 70
     0
300
1:1
140
1.0
141
1.0
290
     1
  0
SCALE
  5
3F
102
{ACAD_REACTORS
330
3D
102
}
330
3D
100
AcDbScale
 70
     0
300
1:2
140
1.0
141
2.0
290
     0
  0
SCALE
  5
40
102
{ACAD_REACTORS
330
3D
102
}
330
3D
100
AcDbScale
 70
     0
300
1:4
140
1.0
141
4.0
290
     0
  0
SCALE
  5
41
102
{ACAD_REACTORS
330
3D
102
}
330
3D
100
AcDbScale
 70
     0
300
1:5
140
1.0
141
5.0
290
     0
  0
SCALE
  5
42
102
{ACAD_REACTORS
330
3D
102
}
330
3D
100
AcDbScale
 70
     0
300
1:8
140
1.0
141
8.0
290
     0
  0
SCALE
  5
43
102
{ACAD_REACTORS
330
3D
102
}
330
3D
100
AcDbScale
 70
     0
300
1:10
140
1.0
141
10.0
290
     0
  0
SCALE
  5
44
102
{ACAD_REACTORS
330
3D
102
}
330
3D
100
AcDbScale
 70
     0
300
1:16
140
1.0
141
16.0
290
     0
  0
SCALE
  5
45
102
{ACAD_REACTORS
330
3D
102
}
330
3D
100
AcDbScale
 70
     0
300
1:20
140
1.0
141
20.0
290
     0
  0
SCALE
  5
46
102
{ACAD_REACTORS
330
3D
102
}
330
3D
100
AcDbScale
 70
     0
300
1:30
140
1.0
141
30.0
290
     0
  0
SCALE
  5
47
102
{ACAD_REACTORS
330
3D
102
}
330
3D
100
AcDbScale
 70
     0
300
1:40
140
1.0
141
40.0
290
     0
  0
SCALE
  5
48
102
{ACAD_REACTORS
330
3D
102
}
330
3D
100
AcDbScale
 70
     0
300
1:50
140
1.0
141
50.0
290
     0
  0
SCALE
  5
49
102
{ACAD_REACTORS
330
3D
102
}
330
3D
100
AcDbScale
 70
     0
300
1:100
140
1.0
141
100.0
290
     0
  0
SCALE
  5
4A
102
{ACAD_REACTORS
330
3D
102
}
330
3D
100
AcDbScale
 70
     0
300
2:1
140
2.0
141
1.0
290
     0
  0
SCALE
  5
4B
102
{ACAD_REACTORS
330
3D
102
}
330
3D
100
AcDbScale
 70
     0
300
4:1
140
4.0
141
1.0
290
     0
  0
SCALE
  5
4C
102
{ACAD_REACTORS
330
3D
102
}
330
3D
100
AcDbScale
 70
     0
300
8:1
140
8.0
141
1.0
290
     0
  0
SCALE
  5
4D
102
{ACAD_REACTORS
330
3D
102
}
330
3D
100
AcDbScale
 70
     0
300
10:1
140
10.0
141
1.0
290
     0
  0
SCALE
  5
4E
102
{ACAD_REACTORS
330
3D
102
}
330
3D
100
AcDbScale
 70
     0
300
100:1
140
100.0
141
1.0
290
     0
  0
SCALE
  5
4F
102
{ACAD_REACTORS
330
3D
102
}
330
3D
100
AcDbScale
 70
     0
300
1/128" = 1'-0"
140
0.0078125
141
12.0
290
     0
  0
SCALE
  5
50
102
{ACAD_REACTORS
330
3D
102
}
330
3D
100
AcDbScale
 70
     0
300
1/64" = 1'-0"
140
0.015625
141
12.0
290
     0
  0
SCALE
  5
51
102
{ACAD_REACTORS
330
3D
102
}
330
3D
100
AcDbScale
 70
     0
300
1/32" = 1'-0"
140
0.03125
141
12.0
290
     0
  0
SCALE
  5
52
102
{ACAD_REACTORS
330
3D
102
}
330
3D
100
AcDbScale
 70
     0
300
1/16" = 1'-0"
140
0.0625
141
12.0
290
     0
  0
SCALE
  5
53
102
{ACAD_REACTORS
330
3D
102
}
330
3D
100
AcDbScale
 70
     0
300
3/32" = 1'-0"
140
0.09375
141
12.0
290
     0
  0
SCALE
  5
54
102
{ACAD_REACTORS
330
3D
102
}
330
3D
100
AcDbScale
 70
     0
300
1/8" = 1'-0"
140
0.125
141
12.0
290
     0
  0
SCALE
  5
55
102
{ACAD_REACTORS
330
3D
102
}
330
3D
100
AcDbScale
 70
     0
300
3/16" = 1'-0"
140
0.1875
141
12.0
290
     0
  0
SCALE
  5
56
102
{ACAD_REACTORS
330
3D
102
}
330
3D
100
AcDbScale
 70
     0
300
1/4" = 1'-0"
140
0.25
141
12.0
290
     0
  0
SCALE
  5
57
102
{ACAD_REACTORS
330
3D
102
}
330
3D
100
AcDbScale
 70
     0
300
3/8" = 1'-0"
140
0.375
141
12.0
290
     0
  0
SCALE
  5
58
102
{ACAD_REACTORS
330
3D
102
}
330
3D
100
AcDbScale
 70
     0
300
1/2" = 1'-0"
140
0.5
141
12.0
290
     0
  0
SCALE
  5
59
102
{ACAD_REACTORS
330
3D
102
}
330
3D
100
AcDbScale
 70
     0
300
3/4" = 1'-0"
140
0.75
141
12.0
290
     0
  0
SCALE
  5
5A
102
{ACAD_REACTORS
330
3D
102
}
330
3D
100
AcDbScale
 70
     0
300
1" = 1'-0"
140
1.0
141
12.0
290
     0
  0
SCALE
  5
5B
102
{ACAD_REACTORS
330
3D
102
}
330
3D
100
AcDbScale
 70
     0
300
1-1/2" = 1'-0"
140
1.5
141
12.0
290
     0
  0
SCALE
  5
5C
102
{ACAD_REACTORS
330
3D
102
}
330
3D
100
AcDbScale
 70
     0
300
3" = 1'-0"
140
3.0
141
12.0
290
     0
  0
SCALE
  5
5D
102
{ACAD_REACTORS
330
3D
102
}
330
3D
100
AcDbScale
 70
     0
300
6" = 1'-0"
140
6.0
141
12.0
290
     0
  0
SCALE
  5
5E
102
{ACAD_REACTORS
330
3D
102
}
330
3D
100
AcDbScale
 70
     0
300
1'-0" = 1'-0"
140
12.0
141
12.0
290
     0
  0
TABLESTYLE
  5
70
102
{ACAD_XDICTIONARY
360
7C7
102
}
102
{ACAD_REACTORS
330
6F
102
}
330
6F
100
AcDbTableStyle
  3
Standard
 70
     0
 71
     0
 40
0.06
 41
0.06
280
     0
281
     0
  7
Standard
140
0.18
170
     2
 62
     0
 63
     7
283
     0
274
    -2
284
     1
 64
     0
275
    -2
285
     1
 65
     0
276
    -2
286
     1
 66
     0
277
    -2
287
     1
 67
     0
278
    -2
288
     1
 68
     0
279
    -2
289
     1
 69
     0
  7
Standard
140
0.25
170
     5
 62
     0
 63
     7
283
     0
274
    -2
284
     1
 64
     0
275
    -2
285
     1
 65
     0
276
    -2
286
     1
 66
     0
277
    -2
287
     1
 67
     0
278
    -2
288
     1
 68
     0
279
    -2
289
     1
 69
     0
  7
Standard
140
0.18
170
     5
 62
     0
 63
     7
283
     0
274
    -2
284
     1
 64
     0
275
    -2
285
     1
 65
     0
276
    -2
286
     1
 66
     0
277
    -2
287
     1
 67
     0
278
    -2
288
     1
 68
     0
279
    -2
289
     1
 69
     0
  0
VISUALSTYLE
  5
2F
102
{ACAD_XDICTIONARY
360
9B0
102
}
102
{ACAD_REACTORS
330
29
102
}
330
29
100
AcDbVisualStyle
  2
2dWireframe
 70
     4
 71
     0
 72
     2
 73
     0
 90
        0
 40
-0.6
 41
-30.0
 62
     5
 63
     7
 74
     1
 91
        4
 64
     7
 65
   257
 75
     1
175
     1
 42
1.0
 92
        0
 66
   257
 43
1.0
 76
     1
 77
     6
 78
     2
 67
     7
 79
     5
170
     0
171
     0
290
     0
174
     0
 93
        1
 44
0.0
173
     0
291
     0
 45
0.0
1001
ACAD
1000
AcDbSavedByObjectVersion
1070
     0
  0
VISUALSTYLE
  5
31
102
{ACAD_XDICTIONARY
360
9B4
102
}
102
{ACAD_REACTORS
330
29
102
}
330
29
100
AcDbVisualStyle
  2
3D Hidden
 70
     6
 71
     1
 72
     2
 73
     2
 90
        0
 40
-0.6
 41
-30.0
 62
     5
 63
     7
 74
     2
 91
        2
 64
     7
 65
   257
 75
     2
175
     1
 42
179.0
 92
        0
 66
   257
 43
1.0
 76
     1
 77
     6
 78
     2
 67
     7
 79
     3
170
     0
171
     0
290
     0
174
     0
 93
        1
 44
0.0
173
     0
291
     0
 45
0.0
1001
ACAD
1000
AcDbSavedByObjectVersion
1070
     0
  0
VISUALSTYLE
  5
30
102
{ACAD_XDICTIONARY
360
9B2
102
}
102
{ACAD_REACTORS
330
29
102
}
330
29
100
AcDbVisualStyle
  2
3dWireframe
 70
     5
 71
     0
 72
     2
 73
     0
 90
        0
 40
-0.6
 41
-30.0
 62
     5
 63
     7
 74
     1
 91
        4
 64
     7
 65
   257
 75
     1
175
     1
 42
1.0
 92
        0
 66
   257
 43
1.0
 76
     1
 77
     6
 78
     2
 67
     7
 79
     5
170
     0
171
     0
290
     0
174
     0
 93
        1
 44
0.0
173
     0
291
     0
 45
0.0
1001
ACAD
1000
AcDbSavedByObjectVersion
1070
     0
  0
VISUALSTYLE
  5
2E
102
{ACAD_XDICTIONARY
360
9AE
102
}
102
{ACAD_REACTORS
330
29
102
}
330
29
100
AcDbVisualStyle
  2
Basic
 70
     7
 71
     1
 72
     0
 73
     1
 90
        0
 40
-0.6
 41
-30.0
 62
     5
 63
     7
 74
     0
 91
        4
 64
     7
 65
   257
 75
     1
175
     1
 42
1.0
 92
        8
 66
     7
 43
1.0
 76
     1
 77
     6
 78
     2
 67
     7
 79
     5
170
     0
171
     0
290
     0
174
     0
 93
        1
 44
0.0
173
     0
291
     1
 45
0.0
1001
ACAD
1000
AcDbSavedByObjectVersion
1070
     0
  0
VISUALSTYLE
  5
35
102
{ACAD_XDICTIONARY
360
9BC
102
}
102
{ACAD_REACTORS
330
29
102
}
330
29
100
AcDbVisualStyle
  2
Brighten
 70
    12
 71
     2
 72
     2
 73
     0
 90
        0
 40
-0.6
 41
-30.0
 62
     5
 63
     7
 74
     1
 91
        4
 64
     7
 65
   257
 75
     1
175
     1
 42
1.0
 92
        8
 66
     7
 43
1.0
 76
     1
 77
     6
 78
     2
 67
     7
 79
     5
170
     0
171
     0
290
     0
174
     0
 93
        1
 44
50.0
173
     0
291
     1
 45
0.0
1001
ACAD
1000
AcDbSavedByObjectVersion
1070
     0
  0
VISUALSTYLE
  5
39
102
{ACAD_XDICTIONARY
360
9C4
102
}
102
{ACAD_REACTORS
330
29
102
}
330
29
100
AcDbVisualStyle
  2
ColorChange
 70
    16
 71
     2
 72
     2
 73
     3
 90
        0
 40
-0.6
 41
-30.0
 62
     5
 63
     8
 74
     1
 91
        4
 64
     7
 65
   257
 75
     1
175
     1
 42
1.0
 92
        8
 66
     8
 43
1.0
 76
     1
 77
     6
 78
     2
 67
     7
 79
     5
170
     0
171
     0
290
     0
174
     0
 93
        1
 44
0.0
173
     0
291
     1
 45
0.0
1001
ACAD
1000
AcDbSavedByObjectVersion
1070
     0
  0
VISUALSTYLE
  5
32
102
{ACAD_XDICTIONARY
360
9B6
102
}
102
{ACAD_REACTORS
330
29
102
}
330
29
100
AcDbVisualStyle
  2
Conceptual
 70
     9
 71
     3
 72
     2
 73
     0
 90
        0
 40
-0.6
 41
-30.0
 62
     5
 63
     7
 74
     2
 91
        2
 64
     7
 65
   257
 75
     1
175
     1
 42
179.0
 92
        8
 66
     7
 43
1.0
 76
     1
 77
     6
 78
     2
 67
     7
 79
     3
170
     0
171
     0
290
     0
174
     0
 93
        1
 44
0.0
173
     0
291
     0
 45
0.0
1001
ACAD
1000
AcDbSavedByObjectVersion
1070
     0
  0
VISUALSTYLE
  5
34
102
{ACAD_XDICTIONARY
360
9BA
102
}
102
{ACAD_REACTORS
330
29
102
}
330
29
100
AcDbVisualStyle
  2
Dim
 70
    11
 71
     2
 72
     2
 73
     0
 90
        0
 40
-0.6
 41
-30.0
 62
     5
 63
     7
 74
     1
 91
        4
 64
     7
 65
   257
 75
     1
175
     1
 42
1.0
 92
        8
 66
     7
 43
1.0
 76
     1
 77
     6
 78
     2
 67
     7
 79
     5
170
     0
171
     0
290
     0
174
     0
 93
        1
 44
-50.0
173
     0
291
     1
 45
0.0
1001
ACAD
1000
AcDbSavedByObjectVersion
1070
     0
  0
VISUALSTYLE
  5
3C
102
{ACAD_XDICTIONARY
360
9CA
102
}
102
{ACAD_REACTORS
330
29
102
}
330
29
100
AcDbVisualStyle
  2
EdgeColorOff
 70
    22
 71
     2
 72
     2
 73
     0
 90
        0
 40
-0.6
 41
-30.0
 62
     5
 63
     7
 74
     1
 91
        4
 64
     7
 65
   257
 75
     1
175
     1
 42
1.0
 92
        8
 66
     7
 43
1.0
 76
     1
 77
     6
 78
     2
 67
     7
 79
     5
170
     0
171
     0
290
     0
174
     0
 93
        1
 44
0.0
173
     0
291
     1
 45
0.0
1001
ACAD
1000
AcDbSavedByObjectVersion
1070
     0
  0
VISUALSTYLE
  5
38
102
{ACAD_XDICTIONARY
360
9C2
102
}
102
{ACAD_REACTORS
330
29
102
}
330
29
100
AcDbVisualStyle
  2
Facepattern
 70
    15
 71
     2
 72
     2
 73
     0
 90
        0
 40
-0.6
 41
-30.0
 62
     5
 63
     7
 74
     1
 91
        4
 64
     7
 65
   257
 75
     1
175
     1
 42
1.0
 92
        8
 66
     7
 43
1.0
 76
     1
 77
     6
 78
     2
 67
     7
 79
     5
170
     0
171
     0
290
     0
174
     0
 93
        1
 44
0.0
173
     0
291
     1
 45
0.0
1001
ACAD
1000
AcDbSavedByObjectVersion
1070
     0
  0
VISUALSTYLE
  5
2A
102
{ACAD_XDICTIONARY
360
9A6
102
}
102
{ACAD_REACTORS
330
29
102
}
330
29
100
AcDbVisualStyle
  2
Flat
 70
     0
 71
     2
 72
     1
 73
     1
 90
        2
 40
-0.6
 41
30.0
 62
     5
 63
     7
 74
     0
 91
        4
 64
     7
 65
   257
 75
     1
175
     1
 42
1.0
 92
        8
 66
     7
 43
1.0
 76
     1
 77
     6
 78
     2
 67
     7
 79
     5
170
     0
171
     0
290
     0
174
     0
 93
       13
 44
0.0
173
     0
291
     1
 45
0.0
1001
ACAD
1000
AcDbSavedByObjectVersion
1070
     0
  0
VISUALSTYLE
  5
2B
102
{ACAD_XDICTIONARY
360
9A8
102
}
102
{ACAD_REACTORS
330
29
102
}
330
29
100
AcDbVisualStyle
  2
FlatWithEdges
 70
     1
 71
     2
 72
     1
 73
     1
 90
        2
 40
-0.6
 41
30.0
 62
     5
 63
     7
 74
     1
 91
        4
 64
     7
 65
   257
 75
     1
175
     1
 42
1.0
 92
        0
 66
   257
 43
1.0
 76
     1
 77
     6
 78
     2
 67
     7
 79
     5
170
     0
171
     0
290
     0
174
     0
 93
       13
 44
0.0
173
     0
291
     1
 45
0.0
1001
ACAD
1000
AcDbSavedByObjectVersion
1070
     0
  0
VISUALSTYLE
  5
2C
102
{ACAD_XDICTIONARY
360
9AA
102
}
102
{ACAD_REACTORS
330
29
102
}
330
29
100
AcDbVisualStyle
  2
Gouraud
 70
     2
 71
     2
 72
     2
 73
     1
 90
        2
 40
-0.6
 41
30.0
 62
     5
 63
     7
 74
     0
 91
        4
 64
     7
 65
   257
 75
     1
175
     1
 42
1.0
 92
        0
 66
     7
 43
1.0
 76
     1
 77
     6
 78
     2
 67
     7
 79
     5
170
     0
171
     0
290
     0
174
     0
 93
       13
 44
0.0
173
     0
291
     1
 45
0.0
1001
ACAD
1000
AcDbSavedByObjectVersion
1070
     0
  0
VISUALSTYLE
  5
2D
102
{ACAD_XDICTIONARY
360
9AC
102
}
102
{ACAD_REACTORS
330
29
102
}
330
29
100
AcDbVisualStyle
  2
GouraudWithEdges
 70
     3
 71
     2
 72
     2
 73
     1
 90
        2
 40
-0.6
 41
30.0
 62
     5
 63
     7
 74
     1
 91
        4
 64
     7
 65
   257
 75
     1
175
     1
 42
1.0
 92
        0
 66
   257
 43
1.0
 76
     1
 77
     6
 78
     2
 67
     7
 79
     5
170
     0
171
     0
290
     0
174
     0
 93
       13
 44
0.0
173
     0
291
     1
 45
0.0
1001
ACAD
1000
AcDbSavedByObjectVersion
1070
     0
  0
VISUALSTYLE
  5
3A
102
{ACAD_XDICTIONARY
360
9C6
102
}
102
{ACAD_REACTORS
330
29
102
}
330
29
100
AcDbVisualStyle
  2
JitterOff
 70
    20
 71
     2
 72
     2
 73
     0
 90
        0
 40
-0.6
 41
-30.0
 62
     5
 63
     7
 74
     1
 91
        4
 64
     7
 65
   257
 75
     1
175
     1
 42
1.0
 92
       10
 66
     7
 43
1.0
 76
     1
 77
     6
 78
     2
 67
     7
 79
     5
170
     0
171
     0
290
     0
174
     0
 93
        1
 44
0.0
173
     0
291
     1
 45
0.0
1001
ACAD
1000
AcDbSavedByObjectVersion
1070
     0
  0
VISUALSTYLE
  5
37
102
{ACAD_XDICTIONARY
360
9C0
102
}
102
{ACAD_REACTORS
330
29
102
}
330
29
100
AcDbVisualStyle
  2
Linepattern
 70
    14
 71
     2
 72
     2
 73
     0
 90
        0
 40
-0.6
 41
-30.0
 62
     5
 63
     7
 74
     1
 91
        4
 64
     7
 65
   257
 75
     7
175
     7
 42
1.0
 92
        8
 66
     7
 43
1.0
 76
     1
 77
     6
 78
     2
 67
     7
 79
     5
170
     0
171
     0
290
     0
174
     0
 93
        1
 44
0.0
173
     0
291
     1
 45
0.0
1001
ACAD
1000
AcDbSavedByObjectVersion
1070
     0
  0
VISUALSTYLE
  5
3B
102
{ACAD_XDICTIONARY
360
9C8
102
}
102
{ACAD_REACTORS
330
29
102
}
330
29
100
AcDbVisualStyle
  2
OverhangOff
 70
    21
 71
     2
 72
     2
 73
     0
 90
        0
 40
-0.6
 41
-30.0
 62
     5
 63
     7
 74
     1
 91
        4
 64
     7
 65
   257
 75
     1
175
     1
 42
1.0
 92
        9
 66
     7
 43
1.0
 76
     1
 77
     6
 78
     2
 67
     7
 79
     5
170
     0
171
     0
290
     0
174
     0
 93
        1
 44
0.0
173
     0
291
     1
 45
0.0
1001
ACAD
1000
AcDbSavedByObjectVersion
1070
     0
  0
VISUALSTYLE
  5
33
102
{ACAD_XDICTIONARY
360
9B8
102
}
102
{ACAD_REACTORS
330
29
102
}
330
29
100
AcDbVisualStyle
  2
Realistic
 70
     8
 71
     2
 72
     2
 73
     0
 90
        0
 40
-0.6
 41
-30.0
 62
     5
 63
     7
 74
     1
 91
        0
 64
     7
 65
   257
 75
     1
175
     1
 42
1.0
 92
        8
 66
     8
 43
1.0
 76
     1
 77
     6
 78
     2
 67
     7
 79
     5
170
     0
171
     0
290
     0
174
     0
 93
       13
 44
0.0
173
     0
291
     0
 45
0.0
1001
ACAD
1000
AcDbSavedByObjectVersion
1070
     0
  0
VISUALSTYLE
  5
36
102
{ACAD_XDICTIONARY
360
9BE
102
}
102
{ACAD_REACTORS
330
29
102
}
330
29
100
AcDbVisualStyle
  2
Thicken
 70
    13
 71
     2
 72
     2
 73
     0
 90
        0
 40
-0.6
 41
-30.0
 62
     5
 63
     7
 74
     1
 91
        4
 64
     7
 65
   257
 75
     1
175
     1
 42
1.0
 92
       12
 66
     7
 43
1.0
 76
     1
 77
     6
 78
     2
 67
     7
 79
     5
170
     0
171
     0
290
     0
174
     0
 93
        1
 44
0.0
173
     0
291
     1
 45
0.0
1001
ACAD
1000
AcDbSavedByObjectVersion
1070
     0
  0
DICTIONARYVAR
  5
8B5
102
{ACAD_REACTORS
330
8B1
102
}
330
8B1
100
DictionaryVariables
280
     0
  1
1:1
  0
DICTIONARYVAR
  5
8B3
102
{ACAD_REACTORS
330
8B1
102
}
330
8B1
100
DictionaryVariables
280
     0
  1
STANDARD
  0
DICTIONARYVAR
  5
8B2
102
{ACAD_REACTORS
330
8B1
102
}
330
8B1
100
DictionaryVariables
280
     0
  1
STANDARD
  0
DICTIONARYVAR
  5
8BC
102
{ACAD_REACTORS
330
8B1
102
}
330
8B1
100
DictionaryVariables
280
     0
  1
1
  0
DICTIONARYVAR
  5
8BB
102
{ACAD_REACTORS
330
8B1
102
}
330
8B1
100
DictionaryVariables
280
     0
  1
1
  0
DICTIONARYVAR
  5
8BA
102
{ACAD_REACTORS
330
8B1
102
}
330
8B1
100
DictionaryVariables
280
     0
  1
0
  0
DICTIONARYVAR
  5
8B7
102
{ACAD_REACTORS
330
8B1
102
}
330
8B1
100
DictionaryVariables
280
     0
  1
0
  0
DICTIONARYVAR
  5
8B8
102
{ACAD_REACTORS
330
8B1
102
}
330
8B1
100
DictionaryVariables
280
     0
  1
0
  0
DICTIONARYVAR
  5
8B6
102
{ACAD_REACTORS
330
8B1
102
}
330
8B1
100
DictionaryVariables
280
     0
  1
2
  0
DICTIONARYVAR
  5
8B4
102
{ACAD_REACTORS
330
8B1
102
}
330
8B1
100
DictionaryVariables
280
     0
  1
1
  0
DICTIONARYVAR
  5
8B9
102
{ACAD_REACTORS
330
8B1
102
}
330
8B1
100
DictionaryVariables
280
     0
  1
127
  0
DICTIONARYVAR
  5
961
102
{ACAD_REACTORS
330
8B1
102
}
330
8B1
100
DictionaryVariables
280
     0
  1
2
  0
DICTIONARY
  5
92F
102
{ACAD_REACTORS
330
923
102
}
330
923
100
AcDbDictionary
281
     1
  0
DICTIONARY
  5
9CD
330
76
100
AcDbDictionary
280
     1
281
     1
  3
ACAD_XREC_ROUNDTRIP
360
9CE
  0
DICTIONARY
  5
9D1
330
7E
100
AcDbDictionary
280
     1
281
     1
  3
ACAD_XREC_ROUNDTRIP
360
9D2
  0
DICTIONARY
  5
9CF
330
7A
100
AcDbDictionary
280
     1
281
     1
  3
ACAD_XREC_ROUNDTRIP
360
9D0
  0
DICTIONARY
  5
1A
330
19
100
AcDbDictionary
280
     1
281
     1
  3
ACAD_XREC_ROUNDTRIP
360
9A4
  3
BUMPTILE
360
1C
  3
DIFFUSETILE
360
1B
  3
OPACITYTILE
360
1F
  3
REFLECTIONTILE
360
1E
  3
REFRACTIONTILE
360
20
  3
SPECULARTILE
360
1D
  0
DICTIONARY
  5
12
330
11
100
AcDbDictionary
280
     1
281
     1
  3
ACAD_XREC_ROUNDTRIP
360
9A3
  3
BUMPTILE
360
14
  3
DIFFUSETILE
360
13
  3
OPACITYTILE
360
17
  3
REFLECTIONTILE
360
16
  3
REFRACTIONTILE
360
18
  3
SPECULARTILE
360
15
  0
DICTIONARY
  5
22
330
21
100
AcDbDictionary
280
     1
281
     1
  3
ACAD_XREC_ROUNDTRIP
360
9A5
  3
BUMPTILE
360
24
  3
DIFFUSETILE
360
23
  3
OPACITYTILE
360
27
  3
REFLECTIONTILE
360
26
  3
REFRACTIONTILE
360
28
  3
SPECULARTILE
360
25
  0
DICTIONARY
  5
7C7
330
70
100
AcDbDictionary
280
     1
281
     1
  3
ACAD_ROUNDTRIP_2008_TABLESTYLE_CELLSTYLEMAP
360
962
  3
ACAD_XREC_ROUNDTRIP
360
9CC
  0
DICTIONARY
  5
9B0
330
2F
100
AcDbDictionary
280
     1
281
     1
  3
ACAD_XREC_ROUNDTRIP
360
9B1
  0
DICTIONARY
  5
9B4
330
31
100
AcDbDictionary
280
     1
281
     1
  3
ACAD_XREC_ROUNDTRIP
360
9B5
  0
DICTIONARY
  5
9B2
330
30
100
AcDbDictionary
280
     1
281
     1
  3
ACAD_XREC_ROUNDTRIP
360
9B3
  0
DICTIONARY
  5
9AE
330
2E
100
AcDbDictionary
280
     1
281
     1
  3
ACAD_XREC_ROUNDTRIP
360
9AF
  0
DICTIONARY
  5
9BC
330
35
100
AcDbDictionary
280
     1
281
     1
  3
ACAD_XREC_ROUNDTRIP
360
9BD
  0
DICTIONARY
  5
9C4
330
39
100
AcDbDictionary
280
     1
281
     1
  3
ACAD_XREC_ROUNDTRIP
360
9C5
  0
DICTIONARY
  5
9B6
330
32
100
AcDbDictionary
280
     1
281
     1
  3
ACAD_XREC_ROUNDTRIP
360
9B7
  0
DICTIONARY
  5
9BA
330
34
100
AcDbDictionary
280
     1
281
     1
  3
ACAD_XREC_ROUNDTRIP
360
9BB
  0
DICTIONARY
  5
9CA
330
3C
100
AcDbDictionary
280
     1
281
     1
  3
ACAD_XREC_ROUNDTRIP
360
9CB
  0
DICTIONARY
  5
9C2
330
38
100
AcDbDictionary
280
     1
281
     1
  3
ACAD_XREC_ROUNDTRIP
360
9C3
  0
DICTIONARY
  5
9A6
330
2A
100
AcDbDictionary
280
     1
281
     1
  3
ACAD_XREC_ROUNDTRIP
360
9A7
  0
DICTIONARY
  5
9A8
330
2B
100
AcDbDictionary
280
     1
281
     1
  3
ACAD_XREC_ROUNDTRIP
360
9A9
  0
DICTIONARY
  5
9AA
330
2C
100
AcDbDictionary
280
     1
281
     1
  3
ACAD_XREC_ROUNDTRIP
360
9AB
  0
DICTIONARY
  5
9AC
330
2D
100
AcDbDictionary
280
     1
281
     1
  3
ACAD_XREC_ROUNDTRIP
360
9AD
  0
DICTIONARY
  5
9C6
330
3A
100
AcDbDictionary
280
     1
281
     1
  3
ACAD_XREC_ROUNDTRIP
360
9C7
  0
DICTIONARY
  5
9C0
330
37
100
AcDbDictionary
280
     1
281
     1
  3
ACAD_XREC_ROUNDTRIP
360
9C1
  0
DICTIONARY
  5
9C8
330
3B
100
AcDbDictionary
280
     1
281
     1
  3
ACAD_XREC_ROUNDTRIP
360
9C9
  0
DICTIONARY
  5
9B8
330
33
100
AcDbDictionary
280
     1
281
     1
  3
ACAD_XREC_ROUNDTRIP
360
9B9
  0
DICTIONARY
  5
9BE
330
36
100
AcDbDictionary
280
     1
281
     1
  3
ACAD_XREC_ROUNDTRIP
360
9BF
  0
XRECORD
  5
9CE
102
{ACAD_REACTORS
330
9CD
102
}
330
9CD
100
AcDbXrecord
280
     1
102
SHADEPLOT
 70
     0
102
SHADEPLOTRESLEVEL
 70
     2
102
SHADEPLOTCUSTOMDPI
 70
   300
  0
XRECORD
  5
9D2
102
{ACAD_REACTORS
330
9D1
102
}
330
9D1
100
AcDbXrecord
280
     1
102
SHADEPLOT
 70
     0
102
SHADEPLOTRESLEVEL
 70
     2
102
SHADEPLOTCUSTOMDPI
 70
   300
  0
XRECORD
  5
9D0
102
{ACAD_REACTORS
330
9CF
102
}
330
9CF
100
AcDbXrecord
280
     1
102
SHADEPLOT
 70
     0
102
SHADEPLOTRESLEVEL
 70
     2
102
SHADEPLOTCUSTOMDPI
 70
   300
  0
XRECORD
  5
9A4
102
{ACAD_REACTORS
330
1A
102
}
330
1A
100
AcDbXrecord
280
     1
102
MATERIAL
148
0.0
149
0.0
149
0.0
 93
        0
 94
      127
282
     0
 72
     0
 77
     0
171
     0
175
     0
179
     0
273
     0
  0
XRECORD
  5
1C
102
{ACAD_REACTORS
330
1A
102
}
330
1A
100
AcDbXrecord
280
     1
270
     1
271
     1
  0
XRECORD
  5
1B
102
{ACAD_REACTORS
330
1A
102
}
330
1A
100
AcDbXrecord
280
     1
270
     1
271
     1
  0
XRECORD
  5
1F
102
{ACAD_REACTORS
330
1A
102
}
330
1A
100
AcDbXrecord
280
     1
270
     1
271
     1
  0
XRECORD
  5
1E
102
{ACAD_REACTORS
330
1A
102
}
330
1A
100
AcDbXrecord
280
     1
270
     1
271
     1
  0
XRECORD
  5
20
102
{ACAD_REACTORS
330
1A
102
}
330
1A
100
AcDbXrecord
280
     1
270
     1
271
     1
  0
XRECORD
  5
1D
102
{ACAD_REACTORS
330
1A
102
}
330
1A
100
AcDbXrecord
280
     1
270
     1
271
     1
  0
XRECORD
  5
9A3
102
{ACAD_REACTORS
330
12
102
}
330
12
100
AcDbXrecord
280
     1
102
MATERIAL
148
0.0
149
0.0
149
0.0
 93
        0
 94
      127
282
     0
 72
     0
 77
     0
171
     0
175
     0
179
     0
273
     0
  0
XRECORD
  5
14
102
{ACAD_REACTORS
330
12
102
}
330
12
100
AcDbXrecord
280
     1
270
     1
271
     1
  0
XRECORD
  5
13
102
{ACAD_REACTORS
330
12
102
}
330
12
100
AcDbXrecord
280
     1
270
     1
271
     1
  0
XRECORD
  5
17
102
{ACAD_REACTORS
330
12
102
}
330
12
100
AcDbXrecord
280
     1
270
     1
271
     1
  0
XRECORD
  5
16
102
{ACAD_REACTORS
330
12
102
}
330
12
100
AcDbXrecord
280
     1
270
     1
271
     1
  0
XRECORD
  5
18
102
{ACAD_REACTORS
330
12
102
}
330
12
100
AcDbXrecord
280
     1
270
     1
271
     1
  0
XRECORD
  5
15
102
{ACAD_REACTORS
330
12
102
}
330
12
100
AcDbXrecord
280
     1
270
     1
271
     1
  0
XRECORD
  5
9A5
102
{ACAD_REACTORS
330
22
102
}
330
22
100
AcDbXrecord
280
     1
102
MATERIAL
148
0.0
149
0.0
149
0.0
 93
        0
 94
      127
282
     0
 72
     0
 77
     0
171
     0
175
     0
179
     0
273
     0
  0
XRECORD
  5
24
102
{ACAD_REACTORS
330
22
102
}
330
22
100
AcDbXrecord
280
     1
270
     1
271
     1
  0
XRECORD
  5
23
102
{ACAD_REACTORS
330
22
102
}
330
22
100
AcDbXrecord
280
     1
270
     1
271
     1
  0
XRECORD
  5
27
102
{ACAD_REACTORS
330
22
102
}
330
22
100
AcDbXrecord
280
     1
270
     1
271
     1
  0
XRECORD
  5
26
102
{ACAD_REACTORS
330
22
102
}
330
22
100
AcDbXrecord
280
     1
270
     1
271
     1
  0
XRECORD
  5
28
102
{ACAD_REACTORS
330
22
102
}
330
22
100
AcDbXrecord
280
     1
270
     1
271
     1
  0
XRECORD
  5
25
102
{ACAD_REACTORS
330
22
102
}
330
22
100
AcDbXrecord
280
     1
270
     1
271
     1
  0
CELLSTYLEMAP
  5
962
102
{ACAD_REACTORS
330
7C7
102
}
330
7C7
100
AcDbCellStyleMap
 90
        3
300
CELLSTYLE
  1
TABLEFORMAT_BEGIN
 90
        5
170
     1
 91
        0
 92
    32768
 62
   257
 93
        1
300
CONTENTFORMAT
  1
CONTENTFORMAT_BEGIN
 90
        0
 91
        0
 92
      512
 93
        0
300

 40
0.0
140
1.0
 94
        5
 62
     0
340
60
144
0.25
309
CONTENTFORMAT_END
171
     0
 94
        0
309
TABLEFORMAT_END
  1
CELLSTYLE_BEGIN
 90
        1
 91
        1
300
_TITLE
309
CELLSTYLE_END
300
CELLSTYLE
  1
TABLEFORMAT_BEGIN
 90
        5
170
     1
 91
        0
 92
        0
 62
   257
 93
        1
300
CONTENTFORMAT
  1
CONTENTFORMAT_BEGIN
 90
        0
 91
        0
 92
      512
 93
        0
300

 40
0.0
140
1.0
 94
        5
 62
     0
340
60
144
0.18
309
CONTENTFORMAT_END
171
     0
 94
        0
309
TABLEFORMAT_END
  1
CELLSTYLE_BEGIN
 90
        2
 91
        1
300
_HEADER
309
CELLSTYLE_END
300
CELLSTYLE
  1
TABLEFORMAT_BEGIN
 90
        5
170
     1
 91
        0
 92
        0
 62
   257
 93
        1
300
CONTENTFORMAT
  1
CONTENTFORMAT_BEGIN
 90
        0
 91
        0
 92
      512
 93
        0
300

 40
0.0
140
1.0
 94
        2
 62
     0
340
60
144
0.18
309
CONTENTFORMAT_END
171
     0
 94
        0
309
TABLEFORMAT_END
  1
CELLSTYLE_BEGIN
 90
        3
 91
        2
300
_DATA
309
CELLSTYLE_END
  0
XRECORD
  5
9CC
102
{ACAD_REACTORS
330
7C7
102
}
330
7C7
100
AcDbXrecord
280
     1
102
ACAD_ROUNDTRIP_PRE2007_TABLESTYLE
 90
      512
 91
        0
  1

 92
      512
 93
        0
  2

 94
      512
 95
        0
  3

  0
XRECORD
  5
9B1
102
{ACAD_REACTORS
330
9B0
102
}
330
9B0
100
AcDbXrecord
280
     1
102
RTVSPropertyOp0
 70
     1
102
RTVSPropertyOp1
 70
     1
102
RTVSPropertyOp2
 70
     1
102
RTVSPropertyOp3
 70
     1
102
RTVSPropertyOp4
 70
     1
102
RTVSPropertyOp5
 70
     1
102
RTVSPropertyOp6
 70
     1
102
RTVSPropertyOp7
 70
     1
102
RTVSPropertyOp8
 70
     1
102
RTVSPropertyOp9
 70
     1
102
RTVSPropertyOp10
 70
     1
102
RTVSPropertyOp11
 70
     1
102
RTVSPropertyOp12
 70
     1
102
RTVSPropertyOp13
 70
     1
102
RTVSPropertyOp14
 70
     1
102
RTVSPropertyOp15
 70
     1
102
RTVSPropertyOp16
 70
     1
102
RTVSPropertyOp17
 70
     1
102
RTVSPropertyOp18
 70
     1
102
RTVSPropertyOp19
 70
     1
102
RTVSPropertyOp20
 70
     1
102
RTVSPropertyOp21
 70
     1
102
RTVSPropertyOp22
 70
     1
102
RTVSPropertyOp23
 70
     1
102
RTVSPropertyOp24
 70
     1
102
RTVSPropertyOp25
 70
     1
102
RTVSPropertyOp26
 70
     1
102
RTVSPropertyOp27
 70
     1
  0
XRECORD
  5
9B5
102
{ACAD_REACTORS
330
9B4
102
}
330
9B4
100
AcDbXrecord
280
     1
102
RTVSPropertyOp0
 70
     1
102
RTVSPropertyOp1
 70
     1
102
RTVSPropertyOp2
 70
     1
102
RTVSPropertyOp3
 70
     1
102
RTVSPropertyOp4
 70
     1
102
RTVSPropertyOp5
 70
     1
102
RTVSPropertyOp6
 70
     1
102
RTVSPropertyOp7
 70
     1
102
RTVSPropertyOp8
 70
     1
102
RTVSPropertyOp9
 70
     1
102
RTVSPropertyOp10
 70
     1
102
RTVSPropertyOp11
 70
     1
102
RTVSPropertyOp12
 70
     1
102
RTVSPropertyOp13
 70
     1
102
RTVSPropertyOp14
 70
     1
102
RTVSPropertyOp15
 70
     1
102
RTVSPropertyOp16
 70
     1
102
RTVSPropertyOp17
 70
     1
102
RTVSPropertyOp18
 70
     1
102
RTVSPropertyOp19
 70
     1
102
RTVSPropertyOp20
 70
     1
102
RTVSPropertyOp21
 70
     1
102
RTVSPropertyOp22
 70
     1
102
RTVSPropertyOp23
 70
     1
102
RTVSPropertyOp24
 70
     1
102
RTVSPropertyOp25
 70
     1
102
RTVSPropertyOp26
 70
     1
102
RTVSPropertyOp27
 70
     1
  0
XRECORD
  5
9B3
102
{ACAD_REACTORS
330
9B2
102
}
330
9B2
100
AcDbXrecord
280
     1
102
RTVSPropertyOp0
 70
     1
102
RTVSPropertyOp1
 70
     1
102
RTVSPropertyOp2
 70
     1
102
RTVSPropertyOp3
 70
     1
102
RTVSPropertyOp4
 70
     1
102
RTVSPropertyOp5
 70
     1
102
RTVSPropertyOp6
 70
     1
102
RTVSPropertyOp7
 70
     1
102
RTVSPropertyOp8
 70
     1
102
RTVSPropertyOp9
 70
     1
102
RTVSPropertyOp10
 70
     1
102
RTVSPropertyOp11
 70
     1
102
RTVSPropertyOp12
 70
     1
102
RTVSPropertyOp13
 70
     1
102
RTVSPropertyOp14
 70
     1
102
RTVSPropertyOp15
 70
     1
102
RTVSPropertyOp16
 70
     1
102
RTVSPropertyOp17
 70
     1
102
RTVSPropertyOp18
 70
     1
102
RTVSPropertyOp19
 70
     1
102
RTVSPropertyOp20
 70
     1
102
RTVSPropertyOp21
 70
     1
102
RTVSPropertyOp22
 70
     1
102
RTVSPropertyOp23
 70
     1
102
RTVSPropertyOp24
 70
     1
102
RTVSPropertyOp25
 70
     1
102
RTVSPropertyOp26
 70
     1
102
RTVSPropertyOp27
 70
     1
  0
XRECORD
  5
9AF
102
{ACAD_REACTORS
330
9AE
102
}
330
9AE
100
AcDbXrecord
280
     1
102
RTVSPropertyOp0
 70
     1
102
RTVSPropertyOp1
 70
     1
102
RTVSPropertyOp2
 70
     1
102
RTVSPropertyOp3
 70
     1
102
RTVSPropertyOp4
 70
     1
102
RTVSPropertyOp5
 70
     1
102
RTVSPropertyOp6
 70
     1
102
RTVSPropertyOp7
 70
     1
102
RTVSPropertyOp8
 70
     1
102
RTVSPropertyOp9
 70
     1
102
RTVSPropertyOp10
 70
     1
102
RTVSPropertyOp11
 70
     1
102
RTVSPropertyOp12
 70
     1
102
RTVSPropertyOp13
 70
     1
102
RTVSPropertyOp14
 70
     1
102
RTVSPropertyOp15
 70
     1
102
RTVSPropertyOp16
 70
     1
102
RTVSPropertyOp17
 70
     1
102
RTVSPropertyOp18
 70
     1
102
RTVSPropertyOp19
 70
     1
102
RTVSPropertyOp20
 70
     1
102
RTVSPropertyOp21
 70
     1
102
RTVSPropertyOp22
 70
     1
102
RTVSPropertyOp23
 70
     1
102
RTVSPropertyOp24
 70
     1
102
RTVSPropertyOp25
 70
     1
102
RTVSPropertyOp26
 70
     1
102
RTVSPropertyOp27
 70
     1
  0
XRECORD
  5
9BD
102
{ACAD_REACTORS
330
9BC
102
}
330
9BC
100
AcDbXrecord
280
     1
102
RTVSPropertyOp0
 70
     1
102
RTVSPropertyOp1
 70
     1
102
RTVSPropertyOp2
 70
     1
102
RTVSPropertyOp3
 70
     1
102
RTVSPropertyOp4
 70
     1
102
RTVSPropertyOp5
 70
     1
102
RTVSPropertyOp6
 70
     1
102
RTVSPropertyOp7
 70
     1
102
RTVSPropertyOp8
 70
     1
102
RTVSPropertyOp9
 70
     1
102
RTVSPropertyOp10
 70
     1
102
RTVSPropertyOp11
 70
     1
102
RTVSPropertyOp12
 70
     1
102
RTVSPropertyOp13
 70
     1
102
RTVSPropertyOp14
 70
     1
102
RTVSPropertyOp15
 70
     1
102
RTVSPropertyOp16
 70
     1
102
RTVSPropertyOp17
 70
     1
102
RTVSPropertyOp18
 70
     1
102
RTVSPropertyOp19
 70
     1
102
RTVSPropertyOp20
 70
     1
102
RTVSPropertyOp21
 70
     1
102
RTVSPropertyOp22
 70
     1
102
RTVSPropertyOp23
 70
     1
102
RTVSPropertyOp24
 70
     1
102
RTVSPropertyOp25
 70
     1
102
RTVSPropertyOp26
 70
     1
102
RTVSPropertyOp27
 70
     1
  0
XRECORD
  5
9C5
102
{ACAD_REACTORS
330
9C4
102
}
330
9C4
100
AcDbXrecord
280
     1
102
RTVSPropertyOp0
 70
     1
102
RTVSPropertyOp1
 70
     1
102
RTVSPropertyOp2
 70
     1
102
RTVSPropertyOp3
 70
     1
102
RTVSPropertyOp4
 70
     1
102
RTVSPropertyOp5
 70
     1
102
RTVSPropertyOp6
 70
     1
102
RTVSPropertyOp7
 70
     1
102
RTVSPropertyOp8
 70
     1
102
RTVSPropertyOp9
 70
     1
102
RTVSPropertyOp10
 70
     1
102
RTVSPropertyOp11
 70
     1
102
RTVSPropertyOp12
 70
     1
102
RTVSPropertyOp13
 70
     1
102
RTVSPropertyOp14
 70
     1
102
RTVSPropertyOp15
 70
     1
102
RTVSPropertyOp16
 70
     1
102
RTVSPropertyOp17
 70
     1
102
RTVSPropertyOp18
 70
     1
102
RTVSPropertyOp19
 70
     1
102
RTVSPropertyOp20
 70
     1
102
RTVSPropertyOp21
 70
     1
102
RTVSPropertyOp22
 70
     1
102
RTVSPropertyOp23
 70
     1
102
RTVSPropertyOp24
 70
     1
102
RTVSPropertyOp25
 70
     1
102
RTVSPropertyOp26
 70
     1
102
RTVSPropertyOp27
 70
     1
  0
XRECORD
  5
9B7
102
{ACAD_REACTORS
330
9B6
102
}
330
9B6
100
AcDbXrecord
280
     1
102
RTVSPropertyOp0
 70
     1
102
RTVSPropertyOp1
 70
     1
102
RTVSPropertyOp2
 70
     1
102
RTVSPropertyOp3
 70
     1
102
RTVSPropertyOp4
 70
     1
102
RTVSPropertyOp5
 70
     1
102
RTVSPropertyOp6
 70
     1
102
RTVSPropertyOp7
 70
     1
102
RTVSPropertyOp8
 70
     1
102
RTVSPropertyOp9
 70
     1
102
RTVSPropertyOp10
 70
     1
102
RTVSPropertyOp11
 70
     1
102
RTVSPropertyOp12
 70
     1
102
RTVSPropertyOp13
 70
     1
102
RTVSPropertyOp14
 70
     1
102
RTVSPropertyOp15
 70
     1
102
RTVSPropertyOp16
 70
     1
102
RTVSPropertyOp17
 70
     1
102
RTVSPropertyOp18
 70
     1
102
RTVSPropertyOp19
 70
     1
102
RTVSPropertyOp20
 70
     1
102
RTVSPropertyOp21
 70
     1
102
RTVSPropertyOp22
 70
     1
102
RTVSPropertyOp23
 70
     1
102
RTVSPropertyOp24
 70
     1
102
RTVSPropertyOp25
 70
     1
102
RTVSPropertyOp26
 70
     1
102
RTVSPropertyOp27
 70
     1
  0
XRECORD
  5
9BB
102
{ACAD_REACTORS
330
9BA
102
}
330
9BA
100
AcDbXrecord
280
     1
102
RTVSPropertyOp0
 70
     1
102
RTVSPropertyOp1
 70
     1
102
RTVSPropertyOp2
 70
     1
102
RTVSPropertyOp3
 70
     1
102
RTVSPropertyOp4
 70
     1
102
RTVSPropertyOp5
 70
     1
102
RTVSPropertyOp6
 70
     1
102
RTVSPropertyOp7
 70
     1
102
RTVSPropertyOp8
 70
     1
102
RTVSPropertyOp9
 70
     1
102
RTVSPropertyOp10
 70
     1
102
RTVSPropertyOp11
 70
     1
102
RTVSPropertyOp12
 70
     1
102
RTVSPropertyOp13
 70
     1
102
RTVSPropertyOp14
 70
     1
102
RTVSPropertyOp15
 70
     1
102
RTVSPropertyOp16
 70
     1
102
RTVSPropertyOp17
 70
     1
102
RTVSPropertyOp18
 70
     1
102
RTVSPropertyOp19
 70
     1
102
RTVSPropertyOp20
 70
     1
102
RTVSPropertyOp21
 70
     1
102
RTVSPropertyOp22
 70
     1
102
RTVSPropertyOp23
 70
     1
102
RTVSPropertyOp24
 70
     1
102
RTVSPropertyOp25
 70
     1
102
RTVSPropertyOp26
 70
     1
102
RTVSPropertyOp27
 70
     1
  0
XRECORD
  5
9CB
102
{ACAD_REACTORS
330
9CA
102
}
330
9CA
100
AcDbXrecord
280
     1
102
RTVSPropertyOp0
 70
     0
102
RTVSPropertyOp1
 70
     0
102
RTVSPropertyOp2
 70
     0
102
RTVSPropertyOp3
 70
     0
102
RTVSPropertyOp4
 70
     0
102
RTVSPropertyOp5
 70
     0
102
RTVSPropertyOp6
 70
     0
102
RTVSPropertyOp7
 70
     0
102
RTVSPropertyOp8
 70
     0
102
RTVSPropertyOp9
 70
     0
102
RTVSPropertyOp10
 70
     0
102
RTVSPropertyOp11
 70
     0
102
RTVSPropertyOp12
 70
     0
102
RTVSPropertyOp13
 70
     0
102
RTVSPropertyOp14
 70
     2
102
RTVSPropertyOp15
 70
     0
102
RTVSPropertyOp16
 70
     0
102
RTVSPropertyOp17
 70
     0
102
RTVSPropertyOp18
 70
     0
102
RTVSPropertyOp19
 70
     0
102
RTVSPropertyOp20
 70
     0
102
RTVSPropertyOp21
 70
     0
102
RTVSPropertyOp22
 70
     0
102
RTVSPropertyOp23
 70
     0
102
RTVSPropertyOp24
 70
     0
102
RTVSPropertyOp25
 70
     0
102
RTVSPropertyOp26
 70
     0
102
RTVSPropertyOp27
 70
     0
  0
XRECORD
  5
9C3
102
{ACAD_REACTORS
330
9C2
102
}
330
9C2
100
AcDbXrecord
280
     1
102
RTVSPropertyOp0
 70
     1
102
RTVSPropertyOp1
 70
     1
102
RTVSPropertyOp2
 70
     1
102
RTVSPropertyOp3
 70
     1
102
RTVSPropertyOp4
 70
     1
102
RTVSPropertyOp5
 70
     1
102
RTVSPropertyOp6
 70
     1
102
RTVSPropertyOp7
 70
     1
102
RTVSPropertyOp8
 70
     1
102
RTVSPropertyOp9
 70
     1
102
RTVSPropertyOp10
 70
     1
102
RTVSPropertyOp11
 70
     1
102
RTVSPropertyOp12
 70
     1
102
RTVSPropertyOp13
 70
     1
102
RTVSPropertyOp14
 70
     1
102
RTVSPropertyOp15
 70
     1
102
RTVSPropertyOp16
 70
     1
102
RTVSPropertyOp17
 70
     1
102
RTVSPropertyOp18
 70
     1
102
RTVSPropertyOp19
 70
     1
102
RTVSPropertyOp20
 70
     1
102
RTVSPropertyOp21
 70
     1
102
RTVSPropertyOp22
 70
     1
102
RTVSPropertyOp23
 70
     1
102
RTVSPropertyOp24
 70
     1
102
RTVSPropertyOp25
 70
     1
102
RTVSPropertyOp26
 70
     1
102
RTVSPropertyOp27
 70
     1
  0
XRECORD
  5
9A7
102
{ACAD_REACTORS
330
9A6
102
}
330
9A6
100
AcDbXrecord
280
     1
102
RTVSPropertyOp0
 70
     1
102
RTVSPropertyOp1
 70
     1
102
RTVSPropertyOp2
 70
     1
102
RTVSPropertyOp3
 70
     1
102
RTVSPropertyOp4
 70
     1
102
RTVSPropertyOp5
 70
     1
102
RTVSPropertyOp6
 70
     1
102
RTVSPropertyOp7
 70
     1
102
RTVSPropertyOp8
 70
     1
102
RTVSPropertyOp9
 70
     1
102
RTVSPropertyOp10
 70
     1
102
RTVSPropertyOp11
 70
     1
102
RTVSPropertyOp12
 70
     1
102
RTVSPropertyOp13
 70
     1
102
RTVSPropertyOp14
 70
     1
102
RTVSPropertyOp15
 70
     1
102
RTVSPropertyOp16
 70
     1
102
RTVSPropertyOp17
 70
     1
102
RTVSPropertyOp18
 70
     1
102
RTVSPropertyOp19
 70
     1
102
RTVSPropertyOp20
 70
     1
102
RTVSPropertyOp21
 70
     1
102
RTVSPropertyOp22
 70
     1
102
RTVSPropertyOp23
 70
     1
102
RTVSPropertyOp24
 70
     1
102
RTVSPropertyOp25
 70
     1
102
RTVSPropertyOp26
 70
     1
102
RTVSPropertyOp27
 70
     1
  0
XRECORD
  5
9A9
102
{ACAD_REACTORS
330
9A8
102
}
330
9A8
100
AcDbXrecord
280
     1
102
RTVSPropertyOp0
 70
     1
102
RTVSPropertyOp1
 70
     1
102
RTVSPropertyOp2
 70
     1
102
RTVSPropertyOp3
 70
     1
102
RTVSPropertyOp4
 70
     1
102
RTVSPropertyOp5
 70
     1
102
RTVSPropertyOp6
 70
     1
102
RTVSPropertyOp7
 70
     1
102
RTVSPropertyOp8
 70
     1
102
RTVSPropertyOp9
 70
     1
102
RTVSPropertyOp10
 70
     1
102
RTVSPropertyOp11
 70
     1
102
RTVSPropertyOp12
 70
     1
102
RTVSPropertyOp13
 70
     1
102
RTVSPropertyOp14
 70
     1
102
RTVSPropertyOp15
 70
     1
102
RTVSPropertyOp16
 70
     1
102
RTVSPropertyOp17
 70
     1
102
RTVSPropertyOp18
 70
     1
102
RTVSPropertyOp19
 70
     1
102
RTVSPropertyOp20
 70
     1
102
RTVSPropertyOp21
 70
     1
102
RTVSPropertyOp22
 70
     1
102
RTVSPropertyOp23
 70
     1
102
RTVSPropertyOp24
 70
     1
102
RTVSPropertyOp25
 70
     1
102
RTVSPropertyOp26
 70
     1
102
RTVSPropertyOp27
 70
     1
  0
XRECORD
  5
9AB
102
{ACAD_REACTORS
330
9AA
102
}
330
9AA
100
AcDbXrecord
280
     1
102
RTVSPropertyOp0
 70
     1
102
RTVSPropertyOp1
 70
     1
102
RTVSPropertyOp2
 70
     1
102
RTVSPropertyOp3
 70
     1
102
RTVSPropertyOp4
 70
     1
102
RTVSPropertyOp5
 70
     1
102
RTVSPropertyOp6
 70
     1
102
RTVSPropertyOp7
 70
     1
102
RTVSPropertyOp8
 70
     1
102
RTVSPropertyOp9
 70
     1
102
RTVSPropertyOp10
 70
     1
102
RTVSPropertyOp11
 70
     1
102
RTVSPropertyOp12
 70
     1
102
RTVSPropertyOp13
 70
     1
102
RTVSPropertyOp14
 70
     1
102
RTVSPropertyOp15
 70
     1
102
RTVSPropertyOp16
 70
     1
102
RTVSPropertyOp17
 70
     1
102
RTVSPropertyOp18
 70
     1
102
RTVSPropertyOp19
 70
     1
102
RTVSPropertyOp20
 70
     1
102
RTVSPropertyOp21
 70
     1
102
RTVSPropertyOp22
 70
     1
102
RTVSPropertyOp23
 70
     1
102
RTVSPropertyOp24
 70
     1
102
RTVSPropertyOp25
 70
     1
102
RTVSPropertyOp26
 70
     1
102
RTVSPropertyOp27
 70
     1
  0
XRECORD
  5
9AD
102
{ACAD_REACTORS
330
9AC
102
}
330
9AC
100
AcDbXrecord
280
     1
102
RTVSPropertyOp0
 70
     1
102
RTVSPropertyOp1
 70
     1
102
RTVSPropertyOp2
 70
     1
102
RTVSPropertyOp3
 70
     1
102
RTVSPropertyOp4
 70
     1
102
RTVSPropertyOp5
 70
     1
102
RTVSPropertyOp6
 70
     1
102
RTVSPropertyOp7
 70
     1
102
RTVSPropertyOp8
 70
     1
102
RTVSPropertyOp9
 70
     1
102
RTVSPropertyOp10
 70
     1
102
RTVSPropertyOp11
 70
     1
102
RTVSPropertyOp12
 70
     1
102
RTVSPropertyOp13
 70
     1
102
RTVSPropertyOp14
 70
     1
102
RTVSPropertyOp15
 70
     1
102
RTVSPropertyOp16
 70
     1
102
RTVSPropertyOp17
 70
     1
102
RTVSPropertyOp18
 70
     1
102
RTVSPropertyOp19
 70
     1
102
RTVSPropertyOp20
 70
     1
102
RTVSPropertyOp21
 70
     1
102
RTVSPropertyOp22
 70
     1
102
RTVSPropertyOp23
 70
     1
102
RTVSPropertyOp24
 70
     1
102
RTVSPropertyOp25
 70
     1
102
RTVSPropertyOp26
 70
     1
102
RTVSPropertyOp27
 70
     1
  0
XRECORD
  5
9C7
102
{ACAD_REACTORS
330
9C6
102
}
330
9C6
100
AcDbXrecord
280
     1
102
RTVSPropertyOp0
 70
     0
102
RTVSPropertyOp1
 70
     0
102
RTVSPropertyOp2
 70
     0
102
RTVSPropertyOp3
 70
     0
102
RTVSPropertyOp4
 70
     0
102
RTVSPropertyOp5
 70
     0
102
RTVSPropertyOp6
 70
     0
102
RTVSPropertyOp7
 70
     0
102
RTVSPropertyOp8
 70
     0
102
RTVSPropertyOp9
 70
     0
102
RTVSPropertyOp10
 70
     0
102
RTVSPropertyOp11
 70
     0
102
RTVSPropertyOp12
 70
     0
102
RTVSPropertyOp13
 70
     0
102
RTVSPropertyOp14
 70
     2
102
RTVSPropertyOp15
 70
     0
102
RTVSPropertyOp16
 70
     0
102
RTVSPropertyOp17
 70
     0
102
RTVSPropertyOp18
 70
     0
102
RTVSPropertyOp19
 70
     0
102
RTVSPropertyOp20
 70
     0
102
RTVSPropertyOp21
 70
     0
102
RTVSPropertyOp22
 70
     0
102
RTVSPropertyOp23
 70
     0
102
RTVSPropertyOp24
 70
     0
102
RTVSPropertyOp25
 70
     0
102
RTVSPropertyOp26
 70
     0
102
RTVSPropertyOp27
 70
     0
  0
XRECORD
  5
9C1
102
{ACAD_REACTORS
330
9C0
102
}
330
9C0
100
AcDbXrecord
280
     1
102
RTVSPropertyOp0
 70
     1
102
RTVSPropertyOp1
 70
     1
102
RTVSPropertyOp2
 70
     1
102
RTVSPropertyOp3
 70
     1
102
RTVSPropertyOp4
 70
     1
102
RTVSPropertyOp5
 70
     1
102
RTVSPropertyOp6
 70
     1
102
RTVSPropertyOp7
 70
     1
102
RTVSPropertyOp8
 70
     1
102
RTVSPropertyOp9
 70
     1
102
RTVSPropertyOp10
 70
     1
102
RTVSPropertyOp11
 70
     1
102
RTVSPropertyOp12
 70
     1
102
RTVSPropertyOp13
 70
     1
102
RTVSPropertyOp14
 70
     1
102
RTVSPropertyOp15
 70
     1
102
RTVSPropertyOp16
 70
     1
102
RTVSPropertyOp17
 70
     1
102
RTVSPropertyOp18
 70
     1
102
RTVSPropertyOp19
 70
     1
102
RTVSPropertyOp20
 70
     1
102
RTVSPropertyOp21
 70
     1
102
RTVSPropertyOp22
 70
     1
102
RTVSPropertyOp23
 70
     1
102
RTVSPropertyOp24
 70
     1
102
RTVSPropertyOp25
 70
     1
102
RTVSPropertyOp26
 70
     1
102
RTVSPropertyOp27
 70
     1
  0
XRECORD
  5
9C9
102
{ACAD_REACTORS
330
9C8
102
}
330
9C8
100
AcDbXrecord
280
     1
102
RTVSPropertyOp0
 70
     0
102
RTVSPropertyOp1
 70
     0
102
RTVSPropertyOp2
 70
     0
102
RTVSPropertyOp3
 70
     0
102
RTVSPropertyOp4
 70
     0
102
RTVSPropertyOp5
 70
     0
102
RTVSPropertyOp6
 70
     0
102
RTVSPropertyOp7
 70
     0
102
RTVSPropertyOp8
 70
     0
102
RTVSPropertyOp9
 70
     0
102
RTVSPropertyOp10
 70
     0
102
RTVSPropertyOp11
 70
     0
102
RTVSPropertyOp12
 70
     0
102
RTVSPropertyOp13
 70
     0
102
RTVSPropertyOp14
 70
     2
102
RTVSPropertyOp15
 70
     0
102
RTVSPropertyOp16
 70
     0
102
RTVSPropertyOp17
 70
     0
102
RTVSPropertyOp18
 70
     0
102
RTVSPropertyOp19
 70
     0
102
RTVSPropertyOp20
 70
     0
102
RTVSPropertyOp21
 70
     0
102
RTVSPropertyOp22
 70
     0
102
RTVSPropertyOp23
 70
     0
102
RTVSPropertyOp24
 70
     0
102
RTVSPropertyOp25
 70
     0
102
RTVSPropertyOp26
 70
     0
102
RTVSPropertyOp27
 70
     0
  0
XRECORD
  5
9B9
102
{ACAD_REACTORS
330
9B8
102
}
330
9B8
100
AcDbXrecord
280
     1
102
RTVSPropertyOp0
 70
     1
102
RTVSPropertyOp1
 70
     1
102
RTVSPropertyOp2
 70
     1
102
RTVSPropertyOp3
 70
     1
102
RTVSPropertyOp4
 70
     1
102
RTVSPropertyOp5
 70
     1
102
RTVSPropertyOp6
 70
     1
102
RTVSPropertyOp7
 70
     1
102
RTVSPropertyOp8
 70
     1
102
RTVSPropertyOp9
 70
     1
102
RTVSPropertyOp10
 70
     1
102
RTVSPropertyOp11
 70
     1
102
RTVSPropertyOp12
 70
     1
102
RTVSPropertyOp13
 70
     1
102
RTVSPropertyOp14
 70
     1
102
RTVSPropertyOp15
 70
     1
102
RTVSPropertyOp16
 70
     1
102
RTVSPropertyOp17
 70
     1
102
RTVSPropertyOp18
 70
     1
102
RTVSPropertyOp19
 70
     1
102
RTVSPropertyOp20
 70
     1
102
RTVSPropertyOp21
 70
     1
102
RTVSPropertyOp22
 70
     1
102
RTVSPropertyOp23
 70
     1
102
RTVSPropertyOp24
 70
     1
102
RTVSPropertyOp25
 70
     1
102
RTVSPropertyOp26
 70
     1
102
RTVSPropertyOp27
 70
     1
  0
XRECORD
  5
9BF
102
{ACAD_REACTORS
330
9BE
102
}
330
9BE
100
AcDbXrecord
280
     1
102
RTVSPropertyOp0
 70
     1
102
RTVSPropertyOp1
 70
     1
102
RTVSPropertyOp2
 70
     1
102
RTVSPropertyOp3
 70
     1
102
RTVSPropertyOp4
 70
     1
102
RTVSPropertyOp5
 70
     1
102
RTVSPropertyOp6
 70
     1
102
RTVSPropertyOp7
 70
     1
102
RTVSPropertyOp8
 70
     1
102
RTVSPropertyOp9
 70
     1
102
RTVSPropertyOp10
 70
     1
102
RTVSPropertyOp11
 70
     1
102
RTVSPropertyOp12
 70
     1
102
RTVSPropertyOp13
 70
     1
102
RTVSPropertyOp14
 70
     1
102
RTVSPropertyOp15
 70
     1
102
RTVSPropertyOp16
 70
     1
102
RTVSPropertyOp17
 70
     1
102
RTVSPropertyOp18
 70
     1
102
RTVSPropertyOp19
 70
     1
102
RTVSPropertyOp20
 70
     1
102
RTVSPropertyOp21
 70
     1
102
RTVSPropertyOp22
 70
     1
102
RTVSPropertyOp23
 70
     1
102
RTVSPropertyOp24
 70
     1
102
RTVSPropertyOp25
 70
     1
102
RTVSPropertyOp26
 70
     1
102
RTVSPropertyOp27
 70
     1
  0
ENDSEC
  0
EOF
